Oops, an error
Loading. Please wait.

Right Back At It Again tab

version 1
version 1

Whole song

  • My version includes the lead guitar part during th... Show more
  • Right back at it again by A Day to Remember.

Interactive

47,216 views 27 this week
9 commentsread comments
1 2 3 4 5
x 13
add to favorites
×
Save as Personal and add changes to this tab that will be seen only by you. Learn more ›
×
You can save this tab as Personal to edit and correct it or add notes. All changes will be seen only by you. Learn more »
launch autoscroll
font size
0
reset
how to read this tab
guitar tuner
backing track
0:00
0:00
edit
Autoscroll
slow
fast
+/-
esc
set tempo
stop
This is off of ADTR's new album in 2013

Tuning: Drop C

[Intro]

Guitar 1
D|------------|---------|
A|------------|---------|
F|------------|---------|
C|------3-----|-------8-|
G|------3-----|-------8-|
C|------3-----|-------8-|


 Guitar 2
D|-------------------------------------------------|
A|-------------------------------------------------|
F|----10-10-10-10----10-10-10-10----10-10-10-10----|
C|-------------------------------------------------|
G|----8--8--8--8------8--8--8--8-----8--8--8--8----|
C|-------------------------------------------------|



WE'RE COMING OUT SWINGING!


 Guitar 1+2
D|-------------------------------------------|        |------------------------|
A|-------------------------------------------|        |------------------------|
F|-------------------------------------------| x3     |------------------------|
C|----3-3-3-3---3-3-3-3---3-3-3-3-3-3-3-3----|        |--8-8-8-8--8-8-7-8-10-3-|
G|----3-3-3-3---3-3-3-3---3-3-3-3-3-3-3-3----|        |--8-8-8-8--8-8-7-8-10-3-|
C|----3-3-3-3---3-3-3-3---3-3-3-3-3-3-3-3----|        |--8-8-8-8--8-8-7-8-10-3-|


Guitar 2

D| |-------------------------------------------------------------------------|
A| |---18-----18-----18-----18----18--------18-----18----18-----17----17-----|
F|o|-----17-----17-----17-----17----17--17----17-----17----17-----17----17---|
C|o|-------15-----15-----15-----15----15--------15-----15----15-----15----15-|
G| |-------------------------------------------------------------------------|
C| |-------------------------------------------------------------------------|

D| |---------------------------|
A| |---17----17-----17---------|
F| |-----17----17-----17--17---|o Repeat 2x
C| |------15-----15-----15-----|o
G| |---------------------------|
C| |---------------------------|


[Verse]

Guitar 1+2
                                                                                         
                   ending A
D|-----------------------------------------------------|------------------|
A|-----------------------------------------------------|------------------|
F|---3-3-3-3-3-3-3-3-------------------5-5-5-5-5-5-5-5-|-7-7-7-7--5-5-5-5-|
C|---3-3-3-3-3-3-3-3--3-3-3-3-3-3-3-3--5-5-5-5-5-5-5-5-|-7-7-7-7--5-5-5-5-|
G|---1-1-1-1-1-1-1-1--3-3-3-3-3-3-3-3--3-3-3-3-3-3-3-3-|-5-5-5-5--3-3-3-3-|
C|--------------------3-3-3-3-3-3-3-3------------------|------------------|

 Ending B
D|-------------------|
A|-------------------|
F|---5-5-5-5-5-5-5-5-|
C|---5-5-5-5-5-5-5-5-|
G|---3-3-3-3-3-3-3-3-|
C|-------------------|

Throughout the Verse, one guitar is playing

D|------|
A|------|
F|--10--|
C|------|
G|--8---|
C|------|



 Ending Chord
D|--5--|
A|--6--|
F|--5--|
C|--3--|
G|--3--|
C|--3--|

Chorus and Guitar Interlude  : Same as Verse


Ending: Repeat Intro
Suggest correction
Creating personal tab
Creating personal tab
You can edit any tab online and save it as your Personal.

You can edit, replace or remove any tab part or add personal notes – all changes will be seen only by you.

Personal tabs can be accessed anytime from any device, even offline.
Learn more »
comments
print report bad tab
9 comments total. Showing first comments.
0 reply
jesseburnell 10 Oct 09, 2013 03:51 PM

Does anyone know the lead guitar part around 2:10?

0 reply
lespaulfreak123 140 Oct 11, 2013 04:33 PM

I don't know it specifically, but from what I can hear he is just playing octaves on a scale.

+1 reply
GraceTheWrong 110 Oct 16, 2013 04:46 AM

Where's the chorus? I only see a verse and the intro

guest
You may want to rate the tab now too:
select rating
Wanna post a correction for this tab? Suggest correction