Oops, an error
Loading. Please wait.

Right Back At It Again tab

version 2
version 2

Whole song

  • My version includes the lead guitar part during th... Show more
  • Right back at it again by A Day to Remember.

Interactive

48,043 views 117 this week
9 commentsread comments
1 2 3 4 5
x 32
add to favorites
×
Save as Personal and add changes to this tab that will be seen only by you. Learn more ›
×
You can save this tab as Personal to edit and correct it or add notes. All changes will be seen only by you. Learn more »
launch autoscroll
font size
0
reset
how to read this tab
guitar tuner
backing track
0:00
0:00
edit
Autoscroll
slow
fast
+/-
esc
set tempo
stop
RIGHT BACK AT IT AGAIN
A DAY TO REMEMBER
COMMON COURTESY

GUITAR 1

[INTRO]

D------------|--------------------------------------------------|
A------------|--------------------------------------------------|
F------------|--------------------------------------------------|
C------3-----|-------8------------------------------------------|
G------3-----|-------8------------------------------------------|
C------3-----|-------8------------------------------------------|

WE'RE COMING OUT SWINGING!

D----------------------------------------------------------------------------------------------|
A----------------------------------------------------------------------------------------------|
F----------------------------------------------------------------------------------------------|
C-3-3-3-3--3-3-3-3--3-3-3-3-3-3-3-3-3-3--3-3-3-3-3-3-3-3--3-3-3-3--3-3-3-8-8-8-8--8-8-8-7-8-10-|
G-3-3-3-3--3-3-3-3--3-3-3-3-3-3-3-3-3-3--3-3-3-3-3-3-3-3--3-3-3-3--3-3-3-8-8-8-8--8-8-8-7-8-10-|
C-3-3-3-3--3-3-3-3--3-3-3-3-3-3-3-3-3-3--3-3-3-3-3-3-3-3--3-3-3-3--3-3-3-8-8-8-8--8-8-8-7-8-10-|

D---------------------------------------------------------------|
A-18-------18-------18-------18-----18----------18--------------|
F----17-17----17-17----17-17-----17----17-17-------17-17--------|
C---------------------------------------------------------------|
G---------------------------------------------------------------|
C---------------------------------------------------------------|

D---------------------------------------------------------------|
A-17-------17-------17-------17---------------------------------|
F----17-17----17-17----17-17-----17-17--------------------------|
C---------------------------------------------------------------|
G---------------------------------------------------------------|
C---------------------------------------------------------------|


[VERSE & CHORUS]
Palm mute verses
D---------------------------------------------------------------|
A---------------------------------------------------------------|
F-3-----------5-----7-----5-----3-----------5-------------------|
C-3(x8)-3-----5(x8)-7(x4)-5(x4)-3(x8)-3-----5(x16)--------------|
G-1-----3(x8)-3-----5-----3-----1-----3(x8)-3-------------------|
C-------3-----------------------------3-------------------------|

2ND HALF OF CHORUS
D---------------------------------------------------------------|
A---------------------------------------------------------------|
F-10/12-10/12-5-----12--12/14-14-14-----------------------------|
C---------------------------------------------------------------|
G-8/10--8/10--3-----10--10/12-12-12-----------------------------|
C---------------------------------------------------------------|


[BRIDGE]

D---------------------------------------------------------------|
A---------------------------------------------------------------|
F---------------------------------------------------------------|
C-8-8-8-7-7-7-5-5-5-7-7-7-8-7-5-----------7-7-7-5-5-5-7-7-7-----|
G-------------------------------8-------------------------------|
C---------------------------------10-10-10----------------------|

D---------------------------------------------------------------|
A---------------------------------------------------------------|
F---------------------------------------------------------------|
C-8-7-5---8-8-8-7-7-7-5-5-5-7-7-7-8-7-5-------------------------|
G-------8-------------------------------8(x)-10-7(x8)-----------|
C---------------------------------------------------------------|


[INTRO]
[VERSE]
[CHORUS]
[VERSE]
[CHORUS]
[BRIDGE]
[CHORUS]


GUITAR 2


[INTRO]

D---------------------------------------------------------------|
A---------------------------------------------------------------|
F-10-10-10-10--10-10-10-10--10-10-10-10-------------------------|
C--------------------------------------(x3)-8-------------------|
G-8--8--8--8---8--8--8--8---8--8--8--8------8-------------------|
C-------------------------------------------8-------------------|

WE'RE COMING OUT SWINGING!

D---------------------------------------------------------------|
A---------------------------------------------------------------|
F---------------------------------------------------------------|
C-3-3-3-3---3-3-3-3---3-3-3-3-3-3-3-3-----8-8-8-8---8-8-7-8-10--|
G-3-3-3-3---3-3-3-3---3-3-3-3-3-3-3-3(X3)-8-8-8-8---8-8-7-8-10--|
C-3-3-3-3---3-3-3-3---3-3-3-3-3-3-3-3-----8-8-8-8---8-8-7-8-10--|

D------------|
A------------|
F------------|
C------3-----|
G------3-----|
C------3-----|


[VERSE & CHORUS & BRIDGE]

D---------------------------------------------------------------|
A---------------------------------------------------------------|
F-3-----------5-----7-----5-----3-----------5-------------------|
C-3(x8)-3-----5(x8)-7(x4)-5(x4)-3(x8)-3-----5(x16)--------------|
G-1-----3(x8)-3-----5-----3-----1-----3(x8)-3-------------------|
C-------3-----------------------------3-------------------------|


[INTRO]
[VERSE]
[CHORUS]
[VERSE]
[CHORUS]
[BRIDGE]
[CHORUS]

This is by far the simplest song on the album



************************************

| /   Slide up
|(xN) Repeat N timtes

************************************

            
            
Suggest correction
Creating personal tab
Creating personal tab
You can edit any tab online and save it as your Personal.

You can edit, replace or remove any tab part or add personal notes – all changes will be seen only by you.

Personal tabs can be accessed anytime from any device, even offline.
Learn more »
comments
print report bad tab
9 comments total. Showing first comments.
0 reply
hfelice3 874 Oct 30, 2013 06:43 PM

I think City Of Ocala is just about as simple at this song. Especially considering the fact that they both have the same 4 chords throughout the entire song.

0 reply
AlphaWolfSquad 86 Apr 07, 2014 02:22 PM

sorry guys! when i uploaded the tab, i guess i accidentally wrote in some notes a line too high. in the 2nd half of the chorus, the notes on the C string should actually be on the G string :)

-2 reply
ATalmidim 31 Apr 30, 2014 05:44 AM

this tab is great but the bridge sounds funny so i messed around with it, and this sounds a little closer to the song, (this isn't perfect but it sounds closer. also note I'm in Drop B, so it might just sound funny to me but, I've transposed the song to match the album. the correction however is in Drop c For you guys :P)

D---------------------------------------------------------------|
A---------------------------------------------------------------|
F---------------------------------------------------------------|
C-----555-777-555-777-7/8\7----------555-777-555-777-7/8\7------|
G---------------------------------------------------------------|
C---------------------------------------------------------------|

D---------------------------------------------------------------|
A---------------------------------------------------------------|
F---------------------------------------------------------------|
C-----555-777-555-777-7/8\7-----------------33333-55-22222------|
G---------------------------------------------------------------|
C---------------------------------------------------------------| X2

I hope this helps :D if it doesn't I'm Sorry.

guest
You may want to rate the tab now too:
select rating
Wanna post a correction for this tab? Suggest correction