Oops, an error
Loading. Please wait.

Right Back At It Again tab

version 3
version 3

Whole song

  • My version includes the lead guitar part during th... Show more
  • Right back at it again by A Day to Remember.

Interactive

5,764 views 1 this week
2 commentsread comments
1 2 3 4 5
x 3
add to favorites
×
Save as Personal and add changes to this tab that will be seen only by you. Learn more ›
×
You can save this tab as Personal to edit and correct it or add notes. All changes will be seen only by you. Learn more »
launch autoscroll
font size
0
reset
how to read this tab
guitar tuner
backing track
0:00
0:00
edit
Autoscroll
slow
fast
+/-
esc
set tempo
stop
Intro
D#------------------------------------------|
A#------------------------------------------|
F#-9999-9999-9~~9999-9999-9~~9999-9999-9----|
C#-xxxx-xxxx-x--xxxx-xxxx-x--xxxx-xxxx-x----|
G#-7777-7777-7~~7777-7777-7~~7777-7777-7----|
C#---------------------------------------8/2|

'We're coming out swinging!'
D#-------------------------------------------------|
A#-------------------------------------------------|
F#-------------------------------------------------| X2
C#-------------------------------------------------|
G#-2222-222-2-2222-2222222222-2222-222-2-7777-77669|
C#-2222-222-2-2222-2222222222-2222-222-2-7777-77669|
PM-****-***-*-****-**********-****-***-*-****-*****|

Interlude
Rhythm
D#-----------------------------------|
A#-----------------------------------|
F#-----------------------------------|
C#-2~~~~~~~~~~~~~~~222~~~~~~~~~~~~~~~|
G#-2~~~~~~~~~~~~~~~222~~~~~~~~~~~~~~~|
C#-2~~~~~~~~~~~~~~~222~~~~~~~~~~~~~~~|
PM-----------------**----------------|

Lead
D#-------------------------------------------------------------|
A#-17----17----17----17----17----17----17----16----16----16----|
F#---1616--1616--1616--1616--1616--1616--1616--1616--1616--1616| X2
C#-------------------------------------------------------------|
G#-------------------------------------------------------------|
C#-------------------------------------------------------------|

'Started out in the Spring of 2003...'
Rhythm
Rhythm
D#-----------------------------------------------------------------|
A#-----------------------------------------------------------------|
F#-----------------------------------------------------------------| X2
C#-22222222--------444444446666444422222222--------4444444444444444|
G#-0000000022222222222222224444222200000000222222222222222222222222|
C#---------22222222------------------------22222222----------------|
PM-****************************************************************|

Lead (comes in halfway through)
D#-------------------------------------------------------------|
A#-17----17----17----17----17----17----17----16----16----16----|
F#---1616--1616--1616--1616--1616--1616--1616--1616--1616--1616|
C#-------------------------------------------------------------|
G#-------------------------------------------------------------|
C#-------------------------------------------------------------|

'Here I am, I'm right back at it again...'
Rhythm
D#-----------------------------------------------------------------|
A#-----------------------------------------------------------------|
F#-2222222299999999444444446666444422222222999999994444444444444444|
C#-2222222299999999444444446666444422222222999999994444444444444444|
G#-0000000077777777222222224444222200000000777777772222222222222222|
C#-----------------------------------------------------------------|

D#-----------------------------------------------------------------|
A#-----------------------------------------------------------------|
F#-22--2222--------4---444466666/4~22--2222--------4444444444444444|
C#-22--2222-2--22224---444466666/4~22--2222-2--22224444444444444444|
G#-00--0000-2--22222---222244444/2~00--0000-2--22222222222222222222|
C#----------2--2222-------------------------2--2222----------------|

Lead
D#-----------------------------------------------------------------|
A#-----------------------------------------------------------------|
F#-----------------------------------------------------------------|
C#-----------------------------------------------------------------|
G#-------------------------------------------------7777777966666666|
C#-----------------------------------------------------------------|

D#-----------------------------------------------------------------|
A#-----------------------------------------------------------------|
F#-----------------------------------------------------------------|
C#-----------------------------------------------------------------|
G#-9991114~~~97777-9991114~~~97777-9991114~~~97777-7777777966666666|
C#-----------------------------------------------------------------|

'Left home with no kind of back up plan...'
Rhythm
D#-----------------------------------------------------------------|
A#-----------------------------------------------------------------|
F#-----------------------------------------------------------------| X2
C#-22222222--------444444446666444422222222--------4444444444444444|
G#-0000000022222222222222224444222200000000222222222222222222222222|
C#---------22222222------------------------22222222----------------|
PM-****************************************************************|

Lead (comes in halfway through)
D#-------------------------------------------------------------|
A#-17----17----17----17----17----17----17----16----16----16----|
F#---1616--1616--1616--1616--1616--1616--1616--1616--1616--1616|
C#-------------------------------------------------------------|
G#-------------------------------------------------------------|
C#-------------------------------------------------------------|

'Here I am, I'm right back at it again...'
Rhythm
D#-----------------------------------------------------------------|
A#-----------------------------------------------------------------|
F#-2222222299999999444444446666444422222222999999994444444444444444|
C#-2222222299999999444444446666444422222222999999994444444444444444|
G#-0000000077777777222222224444222200000000777777772222222222222222|
C#-----------------------------------------------------------------|

D#-----------------------------------------------------------------|
A#-----------------------------------------------------------------|
F#-22--2222--------4---444466666/4~22--2222--------4444444444444444|
C#-22--2222-2--22224---444466666/4~22--2222-2--22224444444444444444|
G#-00--0000-2--22222---222244444/2~00--0000-2--22222222222222222222|
C#----------2--2222-------------------------2--2222----------------|

Lead
D#-----------------------------------------------------------------|
A#-----------------------------------------------------------------|
F#-----------------------------------------------------------------|
C#-----------------------------------------------------------------|
G#-------------------------------------------------7777777966666666|
C#-----------------------------------------------------------------|

D#-----------------------------------------------------------------|
A#-----------------------------------------------------------------|
F#-----------------------------------------------------------------|
C#-----------------------------------------------------------------|
G#-9991114~~~97777-9991114~~~97777-9991114~~~97777-7777777966666666|
C#-----------------------------------------------------------------|

Guitar Solo
Lead
D#-------------------------------------------------------------------------------------------|
A#-------------------------------------------------------------------------------------------|
F#-------------------------------------------------------------------------------------------|
C#-------------------------------------------------------------------------------------------|
G#-00911111199-91112121197-22911111199-9111111121197-00911111199-91112121197-7777777966666666|
C#-------------------------------------------------------------------------------------------|

D#-------------------------------------------------------------------------------------------|
A#-------------------------------------------------------------------------------------------|
F#-------------------------------------------------------------------------------------------|
C#-------------------------------------------------------------------------------------------|
G#-00911111199-91111119977-22911111199-9111111121197-00911111199-91111119977-7777777966666666|
C#-------------------------------------------------------------------------------------------|

Rhythm
D#-----------------------------------------------------------------|
A#-----------------------------------------------------------------|
F#-2222222299999999444444446666444422222222999999994444444444444444|
C#-2222222299999999444444446666444422222222999999994444444444444444|
G#-0000000077777777222222224444222200000000777777772222222222222222|
C#-----------------------------------------------------------------|

D#-----------------------------------------------------------------|
A#-----------------------------------------------------------------|
F#-22--2222--------4---444466666/4~22--2222--------4444444444444444|
C#-22--2222-2--22224---444466666/4~22--2222-2--22224444444444444444|
G#-00--0000-2--22222---222244444/2~00--0000-2--22222222222222222222|
C#----------2--2222-------------------------2--2222----------------|

'Just like I've always said...'
D#-----------------------------------------|
A#-----------------------------------------|
F#-6~~~42--22222222999999994444444444444444|
C#-6~~~42--22222222999999994444444444444444|
G#-4~~~20--00000000777777772222222222222222|
C#-----------------------------------------|

'Hey! I'm right back at it again...'
D#-----------------------------------------------------------------|
A#-----------------------------------------------------------------|
F#-22--2222--------4---444466666/4~22--2222--------4444444444444444|
C#-22--2222-2--22224---444466666/4~22--2222-2--22224444444444444444|
G#-00--0000-2--22222---222244444/2~00--0000-2--22222222222222222222|
C#----------2--2222-------------------------2--2222----------------|

'Brace for impact now!'
D#-------------------------------------------------|
A#-------------------------------------------------|
F#-------------------------------------------------| X2
C#-------------------------------------------------|
G#-2222-222-2-2222-2222222222-2222-222-2-7777-77669|
C#-2222-222-2-2222-2222222222-2222-222-2-7777-77669|
PM-****-***-*-****-**********-****-***-*-****-*****|

            
            
Suggest correction
Creating personal tab
Creating personal tab
You can edit any tab online and save it as your Personal.

You can edit, replace or remove any tab part or add personal notes – all changes will be seen only by you.

Personal tabs can be accessed anytime from any device, even offline.
Learn more »
Give kudos to tab author, rate the tab!
1 2 3 4 5
comments
print report bad tab
2 comments total.
0 reply
GraceTheWrong 110 Dec 12, 2013 08:06 AM

The second line in the chorus for lead, there's supposed to be a bend in there

guest
You may want to rate the tab now too:
select rating
Wanna post a correction for this tab? Suggest correction