Oops, an error
Loading. Please wait.

Right Back At It Again tab

version 4
version 4

Whole song

  • My version includes the lead guitar part during th... Show more
  • Right back at it again by A Day to Remember.

Interactive

1,163 views 12 this week
1 commentread comment
1 2 3 4 5
x 4
add to favorites
×
Save as Personal and add changes to this tab that will be seen only by you. Learn more ›
×
You can save this tab as Personal to edit and correct it or add notes. All changes will be seen only by you. Learn more »
launch autoscroll
font size
0
reset
how to read this tab
guitar tuner
backing track
0:00
0:00
edit
Autoscroll
slow
fast
+/-
esc
set tempo
stop
About this tab version
My version includes the lead guitar part during the verses, rhythm during the bridge, and the breakdown at the end of the song, unlike the other versions. My version is also more correct throughout the song, as previous versions have missed notes, rhythms, and entire sections, especially the bridge, which is tabbed incorrectly in the existing versions. I tabbed out both the rhythm and lead guitar parts with their correct rhythms as they correspond with each other, making it more clear how both guitars fit together rhythmically. Was this info helpful? Yes No
-------------------------------------------------------------------------------
                 Right Back At It Again - A Day To Remember
-------------------------------------------------------------------------------
Tabbed by: somedayishere

Tuning: Drop C (low to high): C-G-C-F-A-D

Guitar 1: Lead
Guitar 2: Rhythm

INTRO
- I laid out the rhythms as logically as I felt I could, but it would still be helpful to listen to the
  track to figure them out.

  [Guitar 1] (those are 10's)
   >          >         >      >          >          >      >          >         >
D|-------------------------------------------------------------------------------------|
A|-------------------------------------------------------------------------------------|
F|-10101010---10-1010---10-101010101010---10101010---10-101010101010---10-1010---10\\--|
C|-x-x-x-x----x--x-x----x--x-x-x-x-x-x----x-x-x-x----x--x-x-x-x-x-x----x--x-x----x\\\--|
G|-8-8-8-8----8--8-8----8--8-8-8-8-8-8----8-8-8-8----8--8-8-8-8-8-8----8--8-8----8\\\--|
C|-------------------------------------------------------------------------------------|
 |
 |[Guitar 2]
D|-------------------------------------------------------------------------------------|
A|-------------------------------------------------------------------------------------|
F|-5-----------------------------------------------------------------------------------|
C|-x-------------------------------------------------------------------------------8\\-|
G|-3--(hold)-----------------------------------------------------------------------8\\-|
C|-3-------------------------------------------------------------------------------8\\-|

  [Both Guitars] (condensed, not faster than above) {x2}
   >     >     >   >     >         >     >     >   >
D|------------------------------------------------------------------|
A|------------------------------------------------------------------|
F|------------------------------------------------------------------|
C|---------------------------------------------------------8-----10-|
G|-3333--3333--3-333333--33333333333333--3333--3-338888--888-7-8-10-|
C|-3333--3333--3-333333--33333333333333--3333--3-338888--888-7-8-10-|
                             ******                      **  * *

  [Guitar 1] {x2}
D|-13-------13-------13-------13-------13---------13-------13-------12-------12-------12--------|
A|----13-------13-------13-------13-------13---------13-------13-------13-------13-------13-----|
F|-------10-------10-------10-------10-------10---------10-------10-------10-------10-------10--|
C|----------------------------------------------------------------------------------------------|
G|----------------------------------------------------------------------------------------------|
C|----------------------------------------------------------------------------------------------|
 |
 |[Guitar 2] {x2}
D|----------------------------------------------------------------------------------------------|
A|----------------------------------------------------------------------------------------------|
F|----------------------------------------------------------------------------------------------|
C|-3--------------------------------------------------------------------------------------------|
G|-3----------------------------------------------------------------------------------------3-3-|
C|-3----------------------------------------------------------------------------------------3-3-|
                                                                                            * *
VERSE
  [Both Guitars]
D|-----------------------------------------------------------------|
A|-----------------------------------------------------------------|
F|-----------------------------------------------------------------|
C|-3-3-3-3-3-3-3-3-----------------5-5-5-5-5-5-5-5-7-7-7-7-5-5-5-5-|
G|-1-1-1-1-1-1-1-1-3-3-3-3-3-3-3-3-3-3-3-3-3-3-3-3-5-5-5-5-3-3-3-3-|
C|-----------------3-3-3-3-3-3-3-3---------------------------------|
   * * * * * * * * * * * * * * * * * * * * * * * * * * * * * * * * 

D|-----------------------------------------------------------------|
A|-----------------------------------------------------------------|
F|-----------------------------------------------------------------|
C|-3-3-3-3-3-3-3-3-----------------5-5-5-5-5-5-5-5-5-5-5-5-5-5-5-5-|
G|-1-1-1-1-1-1-1-1-3-3-3-3-3-3-3-3-3-3-3-3-3-3-3-3-3-3-3-3-3-3-3-3-|
C|-----------------3-3-3-3-3-3-3-3---------------------------------|
   * * * * * * * * * * * * * * * * * * * * * * * * * * * * * * * * 

  [Guitar 1]
D|-13-------13-------13-------13-------13----------13-------13-------12-------12-------12----------|
A|----13-------13-------13-------13-------13----------13-------13-------13-------13-------13-------|
F|-------10-------10-------10-------10-------10----------10-------10-------10-------10-------10----|
C|-------------------------------------------------------------------------------------------------|
G|-------------------------------------------------------------------------------------------------|
C|-------------------------------------------------------------------------------------------------|
 |
 |[Guitar 2]
D|-------------------------------------------------------------------------------------------------|
A|-------------------------------------------------------------------------------------------------|
F|-------------------------------------------------------------------------------------------------|
C|-3--3--3--3--3--3--3--3--------------------------5--5--5--5--5--5--5--5--7--7--7--7--5--5--5--5--|
G|-1--1--1--1--1--1--1--1--3--3--3--3--3--3--3--3--3--3--3--3--3--3--3--3--5--5--5--5--3--3--3--3--|
C|-------------------------3--3--3--3--3--3--3--3--------------------------------------------------|
   *  *  *  *  *  *  *  *  *  *  *  *  *  *  *  *  *  *  *  *  *  *  *  *  *  *  *  *  *  *  *  *  

  [Guitar 1]
D|-13-------13-------13-------13-------13----------13-------13-------12-------12-------12----------|
A|----13-------13-------13-------13-------13----------13-------13-------13-------13-------13-------|
F|-------10-------10-------10-------10-------10----------10-------10-------10-------10-------10----|
C|-------------------------------------------------------------------------------------------------|
G|-------------------------------------------------------------------------------------------------|
C|-------------------------------------------------------------------------------------------------|
 |
 |[Guitar 2]
D|-------------------------------------------------------------------------------------------------|
A|-------------------------------------------------------------------------------------------------|
F|-------------------------------------------------------------------------5--5--5--5--5--5--5--5--|
C|-3--3--3--3--3--3--3--3--------------------------5--5--5--5--5--5--5--5--5--5--5--5--5--5--5--5--|
G|-1--1--1--1--1--1--1--1--3--3--3--3--3--3--3--3--3--3--3--3--3--3--3--3--3--3--3--3--3--3--3--3--|
C|-------------------------3--3--3--3--3--3--3--3--------------------------------------------------|
   *  *  *  *  *  *  *  *  *  *  *  *  *  *  *  *  *  *  *  *  *  *  *  *

CHORUS
 [Guitar 1]
D|-------8-----------------------------------------------------------------------------------------|
A|-------------------------------------------------------------------------------------------------|
F|-10-10----10----10-10-10-10----10----14\12/14\12----12-12-12-12-12-12-12-12/14-14-14-14\12-12-12-|
C|-x--x-----x-----x--x--x--x-----x-----x--x--x--x-----x--x--x--x--x--x--x--x--x--x--x--x--x--x--x--|
G|-8--8-----8-----8--8--8--8-----8-----12\10/12\10----10-10-10-10-10-10-10-10/12-12-12-12\10-10-10-|
C|-------------------------------------------------------------------------------------------------|
 |
 |[Guitar 2]
D|-------------------------------------------------------------------------------------------------|
A|-------------------------------------------------------------------------------------------------|
F|-3--3--3--3--3--3--3--3--------------------------5--5--5--5--5--5--5--5--7--7--7--7--5--5--5--5--|
C|-3--3--3--3--3--3--3--3--3--3--3--3--3--3--3--3--5--5--5--5--5--5--5--5--7--7--7--7--5--5--5--5--|
G|-1--1--1--1--1--1--1--1--3--3--3--3--3--3--3--3--3--3--3--3--3--3--3--3--5--5--5--5--3--3--3--3--|
C|-------------------------3--3--3--3--3--3--3--3--------------------------------------------------|


 [Guitar 1]
D|-------8-----------------8-----------------------------------------------------------------------|
A|-------------------------------------------------------------------------------------------------|
F|-10-10----10----10-10-10----10-10-10----10-10-10-10-10-10-10-10-10-10-10-9--9--9--9--9--9--9--9--|
C|-x--x-----x-----x--x--x-----------x-----x--x--x--x--x--x--x--x--x--x--x--x--x--x--x--x--x--x--x--|
G|-8--8-----8-----8--8--8-----------8-----8--8--8--8--8--8--8--8--8--8--8--7--7--7--7--7--7--7--7--|
C|-------------------------------------------------------------------------------------------------|
 |
 |[Guitar 2]
D|-------------------------------------------------------------------------------------------------|
A|-------------------------------------------------------------------------------------------------|
F|-3--3--3--3--3--3--3--3--------------------------5--5--5--5--5--5--5--5--5--5--5--5--5--5--5--5--|
C|-3--3--3--3--3--3--3--3--3--3--3--3--3--3--3--3--5--5--5--5--5--5--5--5--5--5--5--5--5--5--5--5--|
G|-1--1--1--1--1--1--1--1--3--3--3--3--3--3--3--3--3--3--3--3--3--3--3--3--3--3--3--3--3--3--3--3--|
C|-------------------------3--3--3--3--3--3--3--3--------------------------------------------------|


  [Guitar 1]
D|-------------------------------------------------------------------------------------------------|
A|-------------------------------------------------------------------------------------------------|
F|-10/12\10/12/17----------x--12-x--12/14----------10/12\10/12\5--------------12-12-12-12-10-------|
C|-x--x--x--x--x-----------x--x--x--x--x-----------x--x--x--x--x--------------x--x--x--x--x--------|
G|-8//10\8//10/15----------x--10-x--10/12----------8//10\8//10\3--------------10-10-10-10\8--------|
C|-------------------------------------------------------------------------------------------------|
 |
 |[Guitar 2]
D|-------------------------------------------------------------------------------------------------|
A|-------------------------------------------------------------------------------------------------|
F|-3--3-----3--3--------------------------------------5-----5--5-----------7--7--7--7--5--5--5--5--|
C|-3--3-----3--3--------------3-----3--3-----------x--5-----5--5-----------7--7--7--7--5--5--5--5--|
G|-1--1-----1--1-----------x--3-----3--3-----------x--3-----3--3-----------5--5--5--5--3--3--3--3--|
C|-------------------------x--3-----3--3-----------------------------------------------------------|


  [Guitar 1]
D|-------------------------------------------------------------------------------------------------|
A|-------------------------------------------------------------------------------------------------|
F|-10/12\10/12/17----------x--12-x--12/14----------10-10-10-10-10-10-10-10-9--9--9--9--9--9--9--9--|
C|-x--x--x--x--x-----------x--x--x--x--x-----------x--x--x--x--x--x--x--x--x--x--x--x--x--x--x--x--|
G|-8//10\8//10/15----------x--10-x--10/12----------8--8--8--8--8--8--8--8--7--7--7--7--7--7--7--7--|
C|-------------------------------------------------------------------------------------------------|
 |
 |[Guitar 2]
D|-------------------------------------------------------------------------------------------------|
A|-------------------------------------------------------------------------------------------------|
F|-3--3-----3--3-----------------------------------5--5--5--5--5--5--5--5--5--5--5--5--5--5--5--5--|
C|-3--3-----3--3--------------3-----3--3-----------5--5--5--5--5--5--5--5--5--5--5--5--5--5--5--5--|
G|-1--1-----1--1-----------x--3-----3--3-----------3--3--3--3--3--3--3--3--3--3--3--3--3--3--3--3--|
C|-------------------------x--3-----3--3-----------------------------------------------------------|

VERSE 2
  [Guitar 1]
D|----------------------------------------------------8-----------8-----------8-----------8--------|
A|-------------------------------------------------------------------------------------------------|
F|-10----------------------------------------------10----10----10----10----10----10----10----10----|
C|-------------------------------------------------------------------------------------------------|
G|-------------------------------------------------------------------------------------------------|
C|-------------------------------------------------------------------------------------------------|
 |
 |[Guitar 2]
D|-------------------------------------------------------------------------------------------------|
A|-------------------------------------------------------------------------------------------------|
F|-------------------------------------------------------------------------------------------------|
C|-3--3--3--3--3--3--3--3--------------------------5--5--5--5--5--5--5--5--7--7--7--7--5--5--5--5--|
G|-1--1--1--1--1--1--1--1--3--3--3--3--3--3--3--3--3--3--3--3--3--3--3--3--5--5--5--5--3--3--3--3--|
C|-------------------------3--3--3--3--3--3--3--3--------------------------------------------------|
   *  *  *  *  *  *  *  *  *  *  *  *  *  *  *  *  *  *  *  *  *  *  *  *  *  *  *  *  *  *  *  * 

  [Guitar 1]
D|-------------------------------------------------------------------------------------------------|
A|-------------------------------------------------------------------------------------------------|
F|-10-10-10-10-10-10-10-10-10-10-10-10-10-10-10-10-10-10-10-10-10-10-10-10-10-10-10-10-10-10-10-10-|
C|-x--x--x--x--x--x--x--x--x--x--x--x--x--x--x--x--x--x--x--x--x--x--x--x--x--x--x--x--x--x--x--x--|
G|-8--8--8--8--8--8--8--8--8--8--8--8--8--8--8--8--8--8--8--8--8--8--8--8--8--8--8--8--8--8--8--8--|
C|-------------------------------------------------------------------------------------------------|
 |
 |[Guitar 2]
D|-------------------------------------------------------------------------------------------------|
A|-------------------------------------------------------------------------------------------------|
F|-------------------------------------------------------------------------------------------------|
C|-3--3--3--3--3--3--3--3--------------------------5--5--5--5--5--5--5--5--5--5--5--5--5--5--5--5--|
G|-1--1--1--1--1--1--1--1--3--3--3--3--3--3--3--3--3--3--3--3--3--3--3--3--3--3--3--3--3--3--3--3--|
C|-------------------------3--3--3--3--3--3--3--3--------------------------------------------------|
   *  *  *  *  *  *  *  *  *  *  *  *  *  *  *  *  *  *  *  *  *  *  *  *  *  *  *  *  *  *  *  * 

  [Guitar 1]
D|-13-------13-------13-------13-------13----------13-------13-------12-------12-------12----------|
A|----13-------13-------13-------13-------13----------13-------13-------13-------13-------13-------|
F|-------10-------10-------10-------10-------10----------10-------10-------10-------10-------10----|
C|-------------------------------------------------------------------------------------------------|
G|-------------------------------------------------------------------------------------------------|
C|-------------------------------------------------------------------------------------------------|
 |
 |[Guitar 2]
D|-------------------------------------------------------------------------------------------------|
A|-------------------------------------------------------------------------------------------------|
F|-------------------------------------------------------------------------------------------------|
C|-3--3-----3--3--3-----3--------------------------5--5-----5--5--5-----5--7--7-----7--5--5-----5--|
G|-1--1-----1--1--1-----1--3--3-----3--3--3-----3--3--3-----3--3--3-----3--5--5-----5--3--3-----3--|
C|-------------------------3--3-----3--3--3-----3--------------------------------------------------|
 | *  *     *  *  *     *  *  *     *  *  *     *  *  *     *  *  *     *  *  *     *  *  *     * 
 |
 |[Guitar 3] I'm pretty positive this is a voice, but I've tabbed it in case you want to play it instead.
D|-------------------------------------------------------------------------------------------------|
A|-------------------------------------------------------------------------------------------------|
F|-10----------17----14----10-------17-------14----12----------------------15----------14----12----|
C|-x-----------x-----x-----x--------x--------x-----x-----------------------x-----------x-----x-----|
G|-8-----------15----12----8--------15-------12----10----------------------13----------12----10----|
C|-------------------------------------------------------------------------------------------------|


  [Guitar 1]
D|-13-------13-------13-------13-------13----------13-------13-------12-------12-------12----------|
A|----13-------13-------13-------13-------13----------13-------13-------13-------13-------13-------|
F|-------10-------10-------10-------10-------10----------10-------10-------10-------10-------10----|
C|-------------------------------------------------------------------------------------------------|
G|-------------------------------------------------------------------------------------------------|
C|-------------------------------------------------------------------------------------------------|
 |
 |[Guitar 2]
D|-------------------------------------------------------------------------------------------------|
A|-------------------------------------------------------------------------------------------------|
F|-------------------------------------------------------------------------5--5--5--5--5--5--5--5--|
C|-3--3-----3--3--3-----3--------------------------5--5--5--5--5--5--5--5--5--5--5--5--5--5--5--5--|
G|-1--1-----1--1--1-----1--3--3-----3--3--3-----3--3--3--3--3--3--3--3--3--3--3--3--3--3--3--3--3--|
C|-------------------------3--3-----3--3--3-----3--------------------------------------------------|
 | *  *     *  *  *     *  *  *     *  *  *     *  *  *  *  *  *  *  *  * 
 |
 |[Guitar 3]
D|-------------------------------------------------------------------------------------------------|
A|-------------------------------------------------------------------------------------------------|
F|-10----------17----14----10-------17-------14----12----------------------------------------------|
C|-x-----------x-----x-----x--------x--------x-----x-----------------------------------------------|
G|-8-----------15----12----8--------15-------12----10----------------------------------------------|
C|-------------------------------------------------------------------------------------------------|

REPEAT CHORUS

BRIDGE
  [Guitar 1]
D|-------------------------------------------------------------------------------------------------|
A|-------------------------------------------------------------------------------------------------|
F|-------------------------------------------------------------------------------------------------|
C|----------7--7--7-----------7--7--7--8--7-----------------7--7--7-----------7--7--7--8--7--------|
G|-------------------10-10-10----------------10-8--------------------10-10-10----------------10-8--|
C|-8--8--8-----------------------------------------10-10-10----------------------------------------|
 |
 |[Guitar 2]
D|-------------------------------------------------------------------------------------------------|
A|-------------------------------------------------------------------------------------------------|
F|-3--3--3--3--3--3--3--3--------------------------5--5--5--5--5--5--5--5--7--7--7--7--5--5--5--5--|
C|-3--3--3--3--3--3--3--3--3--3--3--3--3--3--3--3--5--5--5--5--5--5--5--5--7--7--7--7--5--5--5--5--|
G|-1--1--1--1--1--1--1--1--3--3--3--3--3--3--3--3--3--3--3--3--3--3--3--3--5--5--5--5--3--3--3--3--|
C|-------------------------3--3--3--3--3--3--3--3--------------------------------------------------|


  [Guitar 1]
D|-------------------------------------------------------------------------------------------------|
A|-------------------------------------------------------------------------------------------------|
F|-------------------------------------------------10-10-10-10-10-10-10-12-9--9--9--9--9--9--10-10-|
C|----------7--7--7-----------7--7--7--8--7--------x--x--x--x--x--x--x--x--x--x--x--x--x--x--x--x--|
G|-------------------10-10-10----------------10-8--8--8--8--8--8--8--8--10-7--7--7--7--7--7--8--8--|
C|-8--8--8-----------------------------------------------------------------------------------------|
 |
 |[Guitar 2]
D|-------------------------------------------------------------------------------------------------|
A|-------------------------------------------------------------------------------------------------|
F|-3--3--3--3--3--3--3--3--------------------------5--5--5--5--5--5--5--5--5--5--5--5--5--5--5--5--|
C|-3--3--3--3--3--3--3--3--3--3--3--3--3--3--3--3--5--5--5--5--5--5--5--5--5--5--5--5--5--5--5--5--|
G|-1--1--1--1--1--1--1--1--3--3--3--3--3--3--3--3--3--3--3--3--3--3--3--3--3--3--3--3--3--3--3--3--|
C|-------------------------3--3--3--3--3--3--3--3--------------------------------------------------|


  [Guitar 1]
D|-------------------------------------------------------------------------------------------------|
A|-------------------------------------------------------------------------------------------------|
F|-------------------------------------------------------------------------------------------------|
C|----------7--7--7-----------7--7--7-----------------------7--7--7-----------7--7--7--8--7--------|
G|-------------------10-10-10----------10-10-8--8--------------------10-10-10----------------10-8--|
C|-8--8--8-----------------------------------------10-10-10----------------------------------------|
 |
 |[Guitar 2]
D|-------------------------------------------------------------------------------------------------|
A|-------------------------------------------------------------------------------------------------|
F|-3--3-----3--3--------------------------------------5-----5--5-----------7--7--7--7--5--5--5--5--|
C|-3--3-----3--3--------------3-----3--3-----------x--5-----5--5-----------7--7--7--7--5--5--5--5--|
G|-1--1-----1--1-----------x--3-----3--3-----------x--3-----3--3-----------5--5--5--5--3--3--3--3--|
C|-------------------------x--3-----3--3-----------------------------------------------------------|


  [Guitar 1]
D|-------------------------------------------------------------------------------------------------|
A|-------------------------------------------------------------------------------------------------|
F|-------------------------------------------------10-10-10-10-10-10-10-12-9--9--9--9--9--9--9--9--|
C|----------7--7--7-----------7--7--7--------------x--x--x--x--x--x--x--x--x--x--x--x--x--x--x--x--|
G|-------------------10-10-10----------10-10-8--8--8--8--8--8--8--8--8--10-7--7--7--7--7--7--7--7--|
C|-8--8--8-----------------------------------------------------------------------------------------|
 |
 |[Guitar 2]
D|-------------------------------------------------------------------------------------------------|
A|-------------------------------------------------------------------------------------------------|
F|-3--3-----3--3-----------------------------------------------------------------------------------|
C|-3--3-----3--3--------------3-----3--3-----------5--5--5--5--5--5--5--5--5--5--5--5--5--5--5--5--|
G|-1--1-----1--1-----------x--3-----3--3-----------3--3--3--3--3--3--3--3--3--3--3--3--3--3--3--3--|
C|-------------------------x--3-----3--3-----------------------------------------------------------|
                                                   *  *  *  *  *  *  *  *  *  *  *  *  *  *  *  *

A cappella "So here I am. I'm right back at it again, just like I always..."

FINAL CHORUS
  [Both Guitars]
D|-------------------------------------------------------------------------------------------------|
A|-------------------------------------------------------------------------------------------------|
F|-------------------------------------------------------------------------7-----------------------|
C|-------------------------------------------------------------------------7-----------5--5--------|
G|-------------------------------------------------------------------------5-----------3--3--------|
C|-------------------------------------------------------------------------------------------------|
                                                                                       *  *

  [Both guitars]
D|-------------------------------------------------------------------------------------------------|
A|-------------------------------------------------------------------------------------------------|
F|-3--3--3--3--3--3--3--3--------------------------5--5--5--5--5--5--5--5--5--5--5--5--5--5--5--5--|
C|-3--3--3--3--3--3--3--3--3--3--3--3--3--3--3--3--5--5--5--5--5--5--5--5--5--5--5--5--5--5--5--5--|
G|-1--1--1--1--1--1--1--1--3--3--3--3--3--3--3--3--3--3--3--3--3--3--3--3--3--3--3--3--3--3--3--3--|
C|-------------------------3--3--3--3--3--3--3--3--------------------------------------------------|


  [Both]
D|-------------------------------------------------------------------------------------------------|
A|-------------------------------------------------------------------------------------------------|
F|-3--3-----3--3--3--3--3-----------------------------5-----5--5--5--5--5--7--7-----7--5--5-----5--|
C|-3--3-----3--3--3--3--3-----3-----3--3--3--3--3-----5-----5--5--5--5--5--7--7-----7--5--5-----5--|
G|-1--1--x--1--1--1--1--1-----3-----3--3--3--3--3--x--3--x--3--3--3--3--3--5--5-----5--3--3-----3--|
C|-------------------------x--3--x--3--3--3--3--3--------------------------------------------------|


  [Both]
D|-------------------------------------------------------------------------------------------------|
A|----------------------------------------------------------------------------------[fade in]------|
F|-3--3-----3--3--3--3--3--------------------------5--5--5--5--5--5--5--5--------------(5)---------|
C|-3--3-----3--3--3--3--3-----3-----3--3--3--3--3--5--5--5--5--5--5--5--5--------------(5)---------|
G|-1--1--x--1--1--1--1--1-----3-----3--3--3--3--3--3--3--3--3--3--3--3--3--------------(3)---------|
C|-------------------------x--3--x--3--3--3--3--3--------------------------------------------------|
                                                   *  *  *  *  *  *  *

  [Both] {x2}
D|------------------------------------------------------------------|
A|------------------------------------------------------------------|
F|------------------------------------------------------------------|
C|---------------------------------------------------------8-----10-|
G|----3-----3--3------3-----3---------3-----3--3------8--888-7-8-10-|
C|-3333--3333--3-333333--33333333333333--3333--3-338888--888-7-8-10-|
   ***   ***     *****   *** *********   ***     *****   **  * *

End on
  [Clean guitar]
D|-------------------|
A|-------------------|
F|-2-----------------|
C|-3-----------------|
G|-3-----------------|
C|-3-----------------|

I transcribed this completely by ear, and I am confident that it is pretty close to 100% correct. However,
nobody is perfect, and I welcome comments and corrections if you hear something I have missed! I hope this
tab is helpful!

************************************

| *   palm mute
| >   accent
| /   slide up
| \   slide down
| h   hammer-on
| p   pull-off
| ~   vibrato
| +   harmonic
| x   Mute note
| b   Bend
| pb  Pre-bend
| br  Bend release
| pbr Pre-bend release
| brb Bend release bend

************************************

            
            
Suggest correction
Creating personal tab
Creating personal tab
You can edit any tab online and save it as your Personal.

You can edit, replace or remove any tab part or add personal notes – all changes will be seen only by you.

Personal tabs can be accessed anytime from any device, even offline.
Learn more »
comments
print report bad tab
1 comment total.
0 reply
alex720 368 Aug 06, 2015 09:44 AM

Awesome. Hands down best tab of this song yet.

guest
You may want to rate the tab now too:
select rating
Wanna post a correction for this tab? Suggest correction