Oops, an error
Loading. Please wait.

Right Back At It Again tab

version 5
version 5

Whole song

  • My version includes the lead guitar part during th... Show more
  • Right back at it again by A Day to Remember.

Interactive

235 views 1 this week
no commentswrite comment
1 2 3 4 5
3 more votes to show rating
add to favorites
×
Save as Personal and add changes to this tab that will be seen only by you. Learn more ›
×
You can save this tab as Personal to edit and correct it or add notes. All changes will be seen only by you. Learn more »
launch autoscroll
font size
0
reset
how to read this tab
guitar tuner
backing track
0:00
0:00
edit
Autoscroll
slow
fast
+/-
esc
set tempo
stop
About this tab version
Right back at it again by A Day to Remember. Was this info helpful? Yes No
[Intro]

Guitar 1
D|--------------------------------------------------------------------------------|
A|--------------------------------------------------------------------------------|
F|--10--10-10---10--10-10----10-10-10-10-10-10------------------------------------|
C|---x---x-x-----x---x--x-----x--x--x--x--x--x------------------------------------|
G|---8---8-8-----8---8--8-----8--8--8--8--8--8------------------------------------|
C|--------------------------------------------------------------------------------|

Guitar 2
D|----------------------------------------------------------------------------|
A|----------------------------------------------------------------------------|
F|----------------------------------------------------------------------------|
C|--3-------------------------------------------------------------------------|
G|--3-------------------------------------------------------------------------|
C|--3-------------------------------------------------------------------------|

Both Guitars
D|-----------------------------------------------------------------------------------------------------|
A|-----------------------------------------------------------------------------------------------------|
F|-----------------------------------------------------------------------------------------------------|
C|--3-3-3-3--3-3-3-3--3--3-3-3-3-3-3--3-3-3-3--333333--3-3-3-3--3-3-3-3---3-3-3-3/8-8-8--8-8--8-7-8-10-| (x2)
G|--3-3-3-3--3-3-3-3--3--3-3-3-3-3-3--3-3-3-3--333333--3-3-3-3--3-3-3-3---3-3-3-3/8-8-8--8-8--8-7-8-10-|
C|--3-3-3-3--3-3-3-3--3--3-3-3-3-3-3--3-3-3-3--333333--3-3-3-3--3-3-3-3---3-3-3-3/8-8-8--8-8--8-7-8-10-|
                                               ******                                         * * * *
D|------|
A|------|
F|------|
C|--3---|
G|--3---|
C|--3---|


Guitar 1
D|-------------------------------------------------------------------------|
A|---18-----18-----18-----18----18--------18-----18----18-----17----17-----|
F|-----17-----17-----17-----17----17--17----17-----17----17-----17----17---|
C|-------15-----15-----15-----15----15--------15-----15----15-----15----15-|
G|-------------------------------------------------------------------------|
C|-------------------------------------------------------------------------|

D|---------------------------|
A|---17----17-----17---------|
F|-----17----17-----17--17---| (x2)
C|------15-----15-----15-----|
G|---------------------------|
C|---------------------------|

Guitar 2
D|----------------------------------------------------------------------------|
A|----------------------------------------------------------------------------|
F|----------------------------------------------------------------------------|
C|--3-3--3--------------------------------------------------------------------|
G|--3-3--3--------------------------------------------------------------------|
C|--3-3--3--------------------------------------------------------------------|
    * *

[Verse]

D|---------------------------------------------------------------------------|
A|---------------------------------------------------------------------------|
F|---------------------------------------------------------------------------|
C|-8-8-8-8-8--3-3-3-3-3--10-10-10-10-10--12-12-12--10-10-10------------------|
G|-8-8-8-8-8--3-3-3-3-3--10-10-10-10-10--12-12-12--10-10-10------------------|
C|-8-8-8-8-8--3-3-3-3-3--10-10-10-10-10--12-12-12--10-10-10------------------|
   * * * * *  * * * * *  *  *  *  *  *   *  *  *   *  *  *                          (x2)

D|---------------------------------------------------------------------------|
A|---------------------------------------------------------------------------|
F|---------------------------------------------------------------------------|
C|-8-8-8-8-8--3-3-3-3-3--10-10-10-10-10-10-10-10-----------------------------|
G|-8-8-8-8-8--3-3-3-3-3--10-10-10-10-10-10-10-10-----------------------------|
C|-8-8-8-8-8--3-3-3-3-3--10-10-10-10-10-10-10-10-----------------------------|
   * * * * *  * * * * *  *  *  *  *  *   *  *  *   


[Chorus]

D|---------------------------------------------------------------------------|
A|---------------------------------------------------------------------------|
F|---------------------------------------------------------------------------|  
C|-8-8-8-8-8--3-3-3-3-3--10-10-10-10-10--12-12-12--10-10-10------------------|   (x3)
G|-8-8-8-8-8--3-3-3-3-3--10-10-10-10-10--12-12-12--10-10-10------------------|
C|-8-8-8-8-8--3-3-3-3-3--10-10-10-10-10--12-12-12--10-10-10------------------|
                                                                                           
D|---------------------------------------------------------------------------|
A|---------------------------------------------------------------------------|
F|---------------------------------------------------------------------------|
C|-8-8-8-8-8--3-3-3-3-3--10-10-10-10-10-10-10-10-----------------------------|
G|-8-8-8-8-8--3-3-3-3-3--10-10-10-10-10-10-10-10-----------------------------|
C|-8-8-8-8-8--3-3-3-3-3--10-10-10-10-10-10-10-10-----------------------------|

Guitar 1

D|---------------------------------------------------------------------------------------------------------|
A|---------------------------------------------------------------------------------------------------------|
F|-10/12--10/12--17--12-12--14-14---10/12--10/12--17--12-12--14-14--10-10-10-10-10-10-10-12-9--------------|
C|-x--x---x--x---x---x--x---x--x----x--x---x--x---x---x--x---x--x---x--x--x--x--x--x--x--x--x--------------|
G|-8-/10--8-/10--15--10-10--12-12---8-/10--8-/10--15--10-10--12-12--8--8--8--8--8--8--8--10-7--------------|
C|---------------------------------------------------------------------------------------------------------|

[Verse]

D|---------------------------------------------------------------------------|
A|---------------------------------------------------------------------------|
F|---------------------------------------------------------------------------|
C|-8-8-8-8-8--3-3-3-3-3--10-10-10-10-10--12-12-12--10-10-10------------------|
G|-8-8-8-8-8--3-3-3-3-3--10-10-10-10-10--12-12-12--10-10-10------------------|
C|-8-8-8-8-8--3-3-3-3-3--10-10-10-10-10--12-12-12--10-10-10------------------|
   * * * * *  * * * * *  *  *  *  *  *   *  *  *   *  *  *                          (x2)

D|---------------------------------------------------------------------------|
A|---------------------------------------------------------------------------|
F|---------------------------------------------------------------------------|
C|-8-8-8-8-8--3-3-3-3-3--10-10-10-10-10-10-10-10-----------------------------|
G|-8-8-8-8-8--3-3-3-3-3--10-10-10-10-10-10-10-10-----------------------------|
C|-8-8-8-8-8--3-3-3-3-3--10-10-10-10-10-10-10-10-----------------------------|
   * * * * *  * * * * *  *  *  *  *  *   *  *  *   

(Solo)

Guitar 1
D|---------------------------------------------------------------|
A|---------------------------------------------------------------|
F|---------------------------------------------------------------|
C|-8-8-8-7-7-7-5-5-5-7-7-7-8-7-5-----------7-7-7-5-5-5-7-7-7-----|
G|-------------------------------8-------------------------------|
C|---------------------------------10-10-10----------------------|

D|---------------------------------------------------------------|
A|---------------------------------------------------------------|
F|---------------------------------------------------------------|
C|-8-7-5---8-8-8-7-7-7-5-5-5-7-7-7-8-7-5-------------------------|
G|-------8-------------------------------8(x7)-10-7--------------|
C|---------------------------------------------------------------|

D|---------------------------------------------------------------|
A|---------------------------------------------------------------|
F|---------------------------------------------------------------|
C|-8-8-8-7-7-7-5-5-5-7-7-7-5-5-------------7-7-7-5-5-5-7-7-7-----|
G|-------------------------------8-------------------------------|
C|---------------------------------10-10-10----------------------|

D|---------------------------------------------------------------|
A|---------------------------------------------------------------|
F|---------------------------------------------------------------|
C|-8-7-5---8-8-8-7-7-7-5-5-5-7-7-7-5-5---------------------------|
G|-------8-----------------------------8--8(x7)-10-7-------------|
C|---------------------------------------------------------------|

Guitar 2
D|--------------------------------------------------------------------------------------------------|
A|--------------------------------------------------------------------------------------------------|
F|-15-15-15-14-14-14-12-12-12-14-14-14-15-14-12-10--5-5-5--14-14-14-12-12-12-14-14-14-15-14-12-10---|
C|--x--x--x--x--x--x--x--x--x--x--x--x--x--x--x--x--x-x-x---x--x--x--x--x--x--x--x--x--x--x--x--x---|
G|-13-13-13-12-12-12-10-10-10-12-12-12-13-12-10--8--3-3-3--12-12-12-10-10-10-12-12-12-13-12-10--8---|
C|--------------------------------------------------------------------------------------------------|

D|--------------------------------------------------------------------------------------------------|
A|--------------------------------------------------------------------------------------------------|
F|-15-15-15-14-14-14-12-12-12-14-14-14-15-14-12-10--10-10-10-10-10-10-10--12--9---------------------|
C|--x--x--x--x--x--x--x--x--x--x--x--x--x--x--x--x---x--x--x--x--x--x--x---x--x---------------------|
G|-13-13-13-12-12-12-10-10-10-12-12-12-13-12-10--8---8--8--8--8--8--8--8--10--7---------------------|
C|--------------------------------------------------------------------------------------------------|

D|--------------------------------------------------------------------------------------------------|
A|--------------------------------------------------------------------------------------------------|
F|-15-15-15-14-14-14-12-12-12-14-14-14-12-10--5-5-5--14-14-14-12-12-12-14-14-14-15-14-12-10---------|
C|--x--x--x--x--x--x--x--x--x--x--x--x--x--x--x-x-x---x--x--x--x--x--x--x--x--x--x--x--x--x---------|
G|-13-13-13-12-12-12-10-10-10-12-12-12-10--8--3-3-3--12-12-12-10-10-10-12-12-12-13-12-10--8---------|
C|--------------------------------------------------------------------------------------------------|

D|--------------------------------------------------------------------------------------------------|
A|--------------------------------------------------------------------------------------------------|
F|-15-15-15-14-14-14-12-12-12-14-14-14-12-10---10--10-10-10-10-10-10-10--12--9----------------------|
C|--x--x--x--x--x--x--x--x--x--x--x--x--x--x----x---x--x--x--x--x--x--x---x--x----------------------|
G|-13-13-13-12-12-12-10-10-10-12-12-12-10--8----8---8--8--8--8--8--8--8--10--7----------------------|
C|--------------------------------------------------------------------------------------------------|


[Chorus]

D|---------------|---------------------------------------------------------------------------------|
A|---------------|---------------------------------------------------------------------------------|
F|---------------|---------------------------------------------------------------------------------|  
C|-12--10-10-----|-------8-8-8-8-8--3-3-3-3-3--10-10-10-10-10--12-12-12--10-10-10------------------|   (x2)
G|-12--10-10-----|-------8-8-8-8-8--3-3-3-3-3--10-10-10-10-10--12-12-12--10-10-10------------------|
C|-12--10-10-----|-------8-8-8-8-8--3-3-3-3-3--10-10-10-10-10--12-12-12--10-10-10------------------|
                                                                                           
D|-----------------------------------------------------------------------------|
A|-----------------------------------------------------------------------------|
F|-----------------------------------------------------------------------------|
C|-8-8-8-8-8--3-3-3-3-3--10-10-10-10-10-10-10-10//-----------------------------|
G|-8-8-8-8-8--3-3-3-3-3--10-10-10-10-10-10-10-10//-----------------------------|
C|-8-8-8-8-8--3-3-3-3-3--10-10-10-10-10-10-10-10//-----------------------------|

[Outro]

D|------------------------------------------------------------------------------------------------------|
A|------------------------------------------------------------------------------------------------------|
F|------------------------------------------------------------------------------------------------------|
C|-//3-3-3-3--3-3-3-3--3--3-3-3-3-3-3--3-3-3-3--333333--3-3-3-3--3-3-3-3---3-3-3-3/8-8-8--8-8--8-7-8-10-| (x2)
G|-//3-3-3-3--3-3-3-3--3--3-3-3-3-3-3--3-3-3-3--333333--3-3-3-3--3-3-3-3---3-3-3-3/8-8-8--8-8--8-7-8-10-|
C|-//3-3-3-3--3-3-3-3--3--3-3-3-3-3-3--3-3-3-3--333333--3-3-3-3--3-3-3-3---3-3-3-3/8-8-8--8-8--8-7-8-10-|
                                                ******                                         * * * *

F|--5----|
A|--6----|
D|--5----|
C|--3----|
G|--3----|
C|--3----|


************************************

| x   Dead note
| g   Grace note
| (n) Ghost note
| h   Hammer-on
| p   Pull-off
| r   Release
| >   Accented note
| t   Tapping
| b   Bend
| br  Bend release
| pb  Pre-bend
| pbr Pre-bend release
| /   Slide up
| \   Slide down
| ~   Vibrato
| s   Slap
| P   Pop
| PM *Palm mute
| TR  Trill
| N   Tremolo

************************************
Suggest correction
Creating personal tab
Creating personal tab
You can edit any tab online and save it as your Personal.

You can edit, replace or remove any tab part or add personal notes – all changes will be seen only by you.

Personal tabs can be accessed anytime from any device, even offline.
Learn more »
Give kudos to tab author, rate the tab!
1 2 3 4 5
comments
print report bad tab
guest
You may want to rate the tab now too:
select rating
Wanna post a correction for this tab? Suggest correction