Oops, an error
Loading. Please wait.

Right Where You Want Me To Be Tab

version 2
version 2

Whole song

Interactive

5,798 views 3 this week
1 commentread comment
1 2 3 4 5
2 more votes to show rating
add to favorites
launch autoscroll
font size
0
reset
how to read this tab
guitar tuner
Autoscroll
slow
fast
+/-
esc
set tempo
stop
Help us to improve Ultimate-Guitar.com Take our survey!
×
Difficulty
Tuning
intermediate
D A D G B E
- This song is actually played in drop C but it can be play in in drop D, not so 
much playing around with the strings 




Drop D

. = palm-muted
~ = hold
b = bend
h = hammer-on
p = pull-off
/ = slide up
\ = slide down



Intro:
Guitar 1
E-------------------------------------------------|
B-------------------------------------------------|
G-------------------------------------------------|
D---8-------10-------1------1-1-1-1-1-x-x-x-------| x2
A---8-x16---10-x16---1-x24--1-1-1-1-1-x-x-x-------|
D---8-------10-------1------1-1-1-1-1-x-x-x-------|


Guitar 2: 
E|--------------------------------------------|
B|--------------------------------------------|
G|-7--88--7--55--333--10----------------------|
D|-x--xx--x--xx--xxx--x-x7--------------------| x2
A|-5--66--5--33--111--8-----------------------|
D|--------------------------------------------|

E|--------------------------------------------|
B|--------------------------------------------|
G|--------------------------------------------|
D|------8----8\3-------10---10----------xxx---|
A|-6~-6----6----------8----8---8--------xxx---|
D|--------------------------------------xxx---|
(x2 both pairs)

Verse:
Guitar 1
E----------------------------------------------|
B----------------------------------------------|
G----------------------------------------------|
D---8------------------------------------------|
A---8--8-8-8-8-8-8-8---8-8-8-8-8-8-8-8---------|
D---8--8-8-8-8-8-8-8---8-8-8-8-8-8-8-8---------|
       . . . . . . .   . . . . . . . .


E--------------------------------------------|
B--------------------------------------------|
G--------------------------------------------|
D---3-------------------1--------------------|
A---3-3-3-3-3-3-3-3-----1-1-1-1-1-1-1-1------|
D---3-3-3-3-3-3-3-3-----1-1-1-1-1-1-1-1------|
      . . . . . . .       . . . . . . .


E-------------------------------------------------|
B-------------------------------------------------|
G-------------------------------------------------|
D---8~--8---------3~-3----1~-1-1---4~--4-4--------|
A---8~--8---------3~-3----1~-1-1---4~--4-4--------|
D---8~--8---------3~-3----1~-1-1---4~--4-4--------|

E--------------------------------------------------------------------------|
B--------------------------------------------------------------------------|
G------------------3-------------------------------------------------------|
D---5-------1------3-x8--3--3-3---4--4-4-----5------1------3-3------3-3----|
A---5-x8----1-x8---1-----3--3-3---4--4-4-----5-x8---1-x8---3-3-x14--3-3----|
D---5-------1------------3--3-3---4--4-4-----5------1------3-3------3-3----|
                                                             .


Guitar 2: 
0:30                 0:36
E-------------------------------------|
B---3----------------6----------------|
G---3----------------5----------------|
D---3----------------3----------------|
A-------------------------------------|
D-------------------------------------|


Chorus:
Guitar 1 
E--------------------------------------------------------------|
B--------------------------------------------------------------|
G---3--------------3-------------------------------------------|
D---3-x8---1-------3-x8---1---------5-------3-------1----------|
A---1------1-x8----1------1-x8------5-x8----3-x8----1-x16------|
D----------1--------------1---------5-------3-------1----------|


Guitar 2
E----6-------6------6-----6------6------6-----6-----6------6----6------6-----|
B------6-------6------------6------6------------6-----6-----------6------6---|
G--3------3------3------------3------3------------3-----3-----------3------3-|
D----------------------------------------------------------------------------|
A----------------------------------------------------------------------------|
D----------------------------------------------------------------------------|

E--------------------------------------------------------------|
B--------------------------------------------------------------|
G---7---7----7/9\7-----5---5----5/7\5-----3--3---3-------------|
D---x---x----x/x\x-----x---x----x/x\x-----x--x---x-x12---------|
A---5---5----5/7\5-----3---3----3/5\3-----1--1---1-------------|
D--------------------------------------------------------------|


Interlude: (faster/shorter intro)
Guitar 1
E-------------------------------------------------|
B-------------------------------------------------|
G-------------------------------------------------|
D---8-------10-------1----------------------------| 
A---8-x16---10-x16---1-x24------------------------|
D---8-------10-------1----------------------------|


Guitar 2: 
E|--------------------------------------------|
B|--------------------------------------------|
G|-7--88--7--55--333--10----------------------|
D|-x--xx--x--xx--xxx--x-x7--------------------| x2 
A|-5--66--5--33--111--8-----------------------|
D|--------------------------------------------|


Verse:
Guitar 1
E----------------------------------------------|
B----------------------------------------------|
G----------------------------------------------|
D---8------------------------------------------|
A---8--8-8-8-8-8-8-8---8-8-8-8-8-8-8-8---------|
D---8--8-8-8-8-8-8-8---8-8-8-8-8-8-8-8---------|
       . . . . . . .   . . . . . . . .


E--------------------------------------------|
B--------------------------------------------|
G--------------------------------------------|
D---3-------------------1--------------------|
A---3-3-3-3-3-3-3-3-----1-1-1-1-1-1-1-1------|
D---3-3-3-3-3-3-3-3-----1-1-1-1-1-1-1-1------|
      . . . . . . .       . . . . . . .

E--------------------------------------------------------------|
B--------------------------------------------------------------|
G--------------------------------------------------------------|
D---8----------------------------------------------------------|
A---8--8-8-8-8-8-8-8---8-8-8-8-8-8-8-8-------------------------|
D---8--8-8-8-8-8-8-8---8-8-8-8-8-8-8-8-------------------------|
        .  .  .  .  .  .  .    .  .  .  .  .  .  .  .

E-----------------------------------------|
B-----------------------------------------|
G-----------------------------------------|
D---3-------------------1----4~--4-4------|
A---3-3-3-3-3-3-3-3-----1----4~--4-4------|
D---3-3-3-3-3-3-3-3-----1----4~--4-4------|
      . . . . . . .

E--------------------------------------------------------------------------|
B--------------------------------------------------------------------------|
G------------------3-------------------------------------------------------|
D---5-------1------3-x8--3--3-3---4--4-4-----5------1------3-3------3-3----|
A---5-x8----1-x8---1-----3--3-3---4--4-4-----5-x8---1-x8---3-3-x14--3-3----|
D---5-------1------------3--3-3---4--4-4-----5------1------3-3------3-3----|
                                                             .

                                                       
Guitar 2
Only plays a little riff at 1:21
E----------------------------------------------------------|
B----------------------------------------------------------|
G----------------------------------------------------------|
D----------------------------------------------------------|
A--5---5-5-5---8-8---3---3-5---5-5---5-3----4~-------------|
D----------------------------------------------------------|


REPEAT CHORUS (both guitars)


Breakdown 1: (only Bass til 2:13)
Guitar 2 at 2:08
E----------------------------------------------------------|
B----------------------------------------------------------|
G--10-10-10-10-10-10-10-10---8-8-8-8---7-7-7-7-------------|
D----------------------------------------------------------|
A----------------------------------------------------------|
D----------------------------------------------------------|
   .  .  .  .  .  .  .  .

Guitar 1 from 2:13
E-------------------------------------|
B-------------------------------------|
G-------------------------------------|
D---5~---10~---1---1-1-1-1-1--1333-1--|
A---5~---10~---1---1-1-1-1-1--1333-1--|
D---5~---10~---1---1-1-1-1-1--1333-1--|
                   . . . . .  ....

Guitar 2
E-----------------------------------|
B-----------------------------------|
G---3~----5~----3~------------------|
D---x~----x~----x~------------------|
A---1~----3~----1~------------------|
D-----------------------------------|


Bridge:
Guitar 1 play the chords slower 
E------------------------------------------------------|
B------------------------------------------------------|
G------------------------------------------------------|
D----5-------10-------1-1-1-1-1-1-333---1--------------|
A----5-x8----10-x8----1-1-1-1-1-1-333---1--x8----------|
D----5-------10-------1-1-1-1-1-1-333---1--------------|


Guitar 2
E----------------------------------------------------------------------------|
B----------------------------------------------------------------------------|
G--3-3-3-3-3--10-10-10---7-7-7-7-7--5-5/7---3-3-3-3-3-1-555--3-3-3-3-3-2-2/3-|
D--x-x-x-x-x--x--x--x----x-x-x-x-x--x-x/x---x-x-x-x-x-x-xxx--x-x-x-x-x-x-x/x-|
A--1-1-1-1-1--8--8--8----5-5-5-5-5--3-3/5---1-1-1-1-1-1-333--1-1-1-1-1-0-0/1-|
D----------------------------------------------------------------------------|

Break-Down 2:
Guitar 1 
E---(0~)--(1~)--(0~)--(1~)--------------|
B----1~----1~----1~----1~---------------|
G----0~----2~----0~----2~---------------|
D----2~----3~----2~----3~---------------|
A----3~----3~----3~----3~---------------|
D----------1~----------1~---------------|

Guitar 1 (afterwards)
E-----------------------------------------------------|
B----------------------------------ones---------------|
G-----------------------------------------------------|
D---5-5555555----3-3333333----1-1111111-111--11-------|
A---5-5555555----3-3333333----1-1111111-111--11-------|
D---5-5555555----3-3333333----1-1111111-111--11-------|
      .......      .......      ....... ...


REPEAT CHORUS (both guitars)
Suggest correction
Give kudos to tab author, rate the tab!
1 2 3 4 5
comments
print report bad tab
1 comment total.
0 reply
Morve38 232 Nov 16, 2010 10:15 AM

The lead in the intro very clearly isn't octaves, the rest sounds pretty dead on though.

guest
You may want to rate the tab now too:
select rating
Wanna post a correction for this tab? Suggest correction