Oops, an error
Loading. Please wait.

Same About You Bass Tab

226 views 6 this week
no commentswrite comment
1 2 3 4 5
2 more votes to show rating
add to favorites
launch autoscroll
font size
0
reset
guitar tuner
Autoscroll
slow
fast
+/-
esc
set tempo
stop
Help us to improve Ultimate-Guitar.com Take our survey!
×
Author
Difficulty
Tuning
intermediate
C G C F A D
A Day To Remember - Same About You

Tabbed by: Ash (XxThreeCheersxX)
email: burdickash@gmail.com


Intro
F|-----------------------------------------------------------------------|
C|----------------------------7------------------------------------------|
G|-5-5-5-5-5-5-5----5-5-5-5-5---5-----------------------8-8-8-8-10-10----|
C|-----------------------------------8-8-8-8-8-8-8----8------------------|

Verse I
F|---------------------------------------------------------------------|
C|----------------------------7----------------------------------------|
G|-5-5-5-5-5-5-5----5-5-5-5-5---5--------------------------------------|
C|-----------------------------------8-8-8-8-8-8-8----8-3-3-3-3-3-3----|

F|---------------------------------------------------------------------|
C|----------------------------7----------------------------------------|
G|-5-5-5-5-5-5-5----5-5-5-5-5---5-----------------------8-8-8-8-3-5----|
C|-----------------------------------8-8-8-8-8-8-8----8----------------|

F|---------------------------------------------------------------------|
C|----------------------------7----------------------------------------|
G|-5-5-5-5-5-5-5----5-5-5-5-5---5--------------------------------------| x 2
C|-----------------------------------8-8-8-8-8-8-8----8-3-3-3-3-3-5----|

Pre-Chorus
F|-------------------------------------------------------------------------|
C|-------------------------------------------------------------------------|
G|-------------------------------------------------------1~----------------|
C|-5~---------------8~--------------17\0~----------------------------------|

Chorus
F|-----------------------------------------------------------------|
C|-----------------------------------------------------------------|
G|-----------------------------------------------------------------|
C|-0-0-0-0-0-0-0-0-0-0-0-0-0-0-0-0-8-8-8-8-8-8-8-8-8-8-8-8-8-8-8-8-|

F|-----------------------------------------------------------------|
C|-----------------------------------------------------------------|
G|---------------------------------3-3-3-3-3-3-3-3-3-3-3-3-3-3-3-3-|
C|-3-3-3-3-3-3-3-3-3-3-3-3-3-3-3-3---------------------------------|

F|-----------------------------------------------------------------|
C|-----------------------------------------------------------------|
G|-----------------------------------------------------------------|
C|-0-0-0-0-0-0-0-0-0-0-0-0-0-0-0-0-8-8-8-8-8-8-8-8-8-8-8-8-8-8-8-8-|

F|-----------------------------------------------------------------|
C|-3-3-3-3-3-3-3-3-3-3-3-3-3-3-3-3---------------------------------|
G|---------------------------------3-3-3-3-3-3-3-3-4-4-4-4-4-4-4-4-|
C|-----------------------------------------------------------------|

Post-Chorus
F|---------------------------------------------------------------------|
C|----------------------------7----------------------------------------|
G|-5-5-5-5-5-5-5----5-5-5-5-5---5-----------------------8-8-8-8-3-4----|
C|-----------------------------------8-8-8-8-8-8-8----8----------------|

Verse II
F|---------------------------------------------------------------------|
C|----------------------------7----------------------------------------|
G|-5-5-5-5-5-5-5----5-5-5-5-5---5--------------------------------------| x 2
C|-----------------------------------8-8-8-8-8-8-8----8-3-3-3-3-3-5----|

Pre-Chorus II
F|----------------------------------------------------------------------------------|
C|----------------------------------------------------------------------------------|
G|--------------------------------------------------------3-3-3-3-3-3-3-3-3---------|
C|-5~-------------4/8------------10--8--0~------------------------------------------|

Chorus (same as before)

Bridge
F|-----------------------|
C|-----------------------|
G|-----------------------|
C|-0--0--0--0--0x--------|

F|---------------------------------------------------------------------|
C|---------------------------------------------------------------------|
G|-5--5-5-5-5-5-5-5-5-5-5-5-5-5-5-5------------------------------------|
C|----------------------------------8--8-8-8-8-8-8-8-8-8-8-7-7-5-5-2-2-|

F|---------------------------------------------------------------------|
C|---------------------------------------------------------------------|
G|----------------------------------3--3-3-3-3-3-3-3-3-3-3-3-3-3-3-3-3-|
C|-3--3-3-3-3-3-3-3-3-3-3-3-3-3-3-3------------------------------------|

F|---------------------------------------------------------------------|
C|---------------------------------------------------------------------|
G|---------------------------------------------------------------------|
C|-0--0-0-0-0-0-0-0-0-0-0-0-0-0-0-0-8--8-8-8-8-8-8-8-8-8-8-8-8-8-8-8-8-|

F|---------------------------------------------------------------------|
C|---------------------------------------------------------------------|
G|----------------------------------3--3-3-3-3-3-3-3-3-4-4-4-4-4-4-4-4-|
C|-3--3-3-3-3-3-3-3-3-3-3-3-3-3-3-3------------------------------------|

F|-------------------------------------------------------------|
C|-------------------------------------------------------------|
G|-------------------------------------------------4-4-4-4-4-4-|
C|-0--0--0--0--0--0--0-0-0-0-0-0-0--0--0--0--0--0--------------|

F|-------------------------------------------------------|
C|-------------------------------------------------------|
G|-5-----------------------------------------------------|
C|----0--0--0--0--0--0-0-0-0-0-0-0--0--0--0--0--0--0--0--|

Chorus

Outro
F|-----------------------------------------------------------------------|
C|-----------------------------------------------------------------------|
G|-------------------------------------------------4-4-4-4-4-4-5---------|
C|-0--0--0--0--0--0--0-0-0-0-0-0-0--0--0--0--0--0------------------------|

Happy playing!


************************************

| x   Dead note
| g   Grace note
| (n) Ghost note
| h   Hammer-on
| p   Pull-off
| r   Release
| >   Accented note
| t   Tapping
| b   Bend
| br  Bend release
| pb  Pre-bend
| pbr Pre-bend release
| /   Slide up
| \   Slide down
| ~   Vibrato
| s   Slap
| P   Pop
| PM  Palm mute
| TR  Trill
| N   Tremolo

************************************
Suggest correction
Give kudos to tab author, rate the tab!
1 2 3 4 5
comments
print report bad tab
guest
You may want to rate the tab now too:
select rating
Wanna post a correction for this tab? Suggest correction