Oops, an error
Loading. Please wait.

Same About You Tab

1,585 views 63 this week
no commentswrite comment
1 2 3 4 5
1 last vote to show rating
add to favorites
launch autoscroll
font size
0
reset
how to read this tab
guitar tuner
Autoscroll
slow
fast
+/-
esc
set tempo
stop
Help us to improve Ultimate-Guitar.com Take our survey!
×
Author
Tuning
C G C F A D
Drop C

[Intro and Verse 1]

Guitar 1 (x6)
D|---------------------------------------------------------------|
A|-6-6-6-6-6-6-6---6-6-6-6-6-8-6---6-6-6-6-6-6-6---5-5-5-5-5-5-5-|
F|-7-7-7-7-7-7-7---7-7-7-7-7-7-7---7-7-7-7-7-7-7---7-7-7-7-7-7-7-|
C|---------------------------------------------------------------| 
G|---------------------------------------------------------------|
C|---------------------------------------------------------------|
   . . . . . . .   . . . . . . .   . . . . . . .   . . .   . .

[Prechorus]

Guitar 1
D|-------------------------|
A|-------------------------|
F|----------------------5~-|
C|-5~-----8~-----0~-----5~-|
G|-5~-----8~-----0~-----3~-|
C|-5~-----8~-----0~--------|

Guitar 2 
D|-3~-----6~-----5~-----3~-|
A|-3~-----6~-----6~-----5~-|
F|-3~-----7~-----7~-----5~-|
C|-5~-----8~-----7~-----5~-|
G|-5~-----8~-----5~-----3~-|
C|-------------------------|

Guitar 3 (clean, panned right)
D|-------5------------5------------5------------5-8~-|
A|-3-5-6---6~---3-5-6---6~---3-5-6---6~---3-5-6------|
F|---------------------------------------------------|
C|---------------------------------------------------|
G|---------------------------------------------------|
C|---------------------------------------------------|

[Chorus]

Guitar 1 
D|---------------------------------------------------------------|
A|---------------------------------------------------------------|
F|---------------------------------------------------------------|
C|-0-0-0-0-0-0-0-0~-0-0-0-0-0-0-0-8-8-8-8-8-8-8-8~-8-8-8-8-8-8-8-|
G|-0-0-0-0-0-0-0-0~-0-0-0-0-0-0-0-8-8-8-8-8-8-8-8~-8-8-8-8-8-8-8-|
C|-0-0-0-0-0-0-0-0~-0-0-0-0-0-0-0-8-8-8-8-8-8-8-8~-8-8-8-8-8-8-8-|
                                                                  
D|---------------------------------------------------------------|
A|---------------------------------------------------------------|
F|--------------------------------5-5-5-5-5-5-5-5~-5-5-5-5-5-5-5-|
C|-3-3-3-3-3-3-3-3~-3-3-3-3-3-3-3-5-5-5-5-5-5-5-5~-5-5-5-5-5-5-5-|
G|-3-3-3-3-3-3-3-3~-3-3-3-3-3-3-3-3-3-3-3-3-3-3-3~-3-3-3-3-3-3-3-|
C|-3-3-3-3-3-3-3-3~-3-3-3-3-3-3-3--------------------------------|

D|---------------------------------------------------------------|
A|---------------------------------------------------------------|
F|---------------------------------------------------------------|
C|-0-0-0-0-0-0-0-0~-0-0-0-0-0-0-0-8-8-8-8-8-8-8-8~-8-8-8-8-8-8-8-|
G|-0-0-0-0-0-0-0-0~-0-0-0-0-0-0-0-8-8-8-8-8-8-8-8~-8-8-8-8-8-8-8-|
C|-0-0-0-0-0-0-0-0~-0-0-0-0-0-0-0-8-8-8-8-8-8-8-8~-8-8-8-8-8-8-8-|
                                                                  
D|---------------------------------------------------------------|
A|---------------------------------------------------------------|
F|--------------------------------5-5-5-5-5-5-5-5~-5-5-5-6-6-6-6-|
C|-3-3-3-3-3-3-3-3~-3-3-3-3-3-3-3-5-5-5-5-5-5-5-5~-5-5-5-6-6-6-6-|
G|-3-3-3-3-3-3-3-3~-3-3-3-3-3-3-3-3-3-3-3-3-3-3-3~-3-3-3-4-4-4-4-|
C|-3-3-3-3-3-3-3-3~-3-3-3-3-3-3-3--------------------------------|


Guitar 2 (x2)
D|-----------------------------------------------------------------------|
A|-----------------------------------------------------------------------|
F|-10-10-10-10-10-10-10-10~-10-10-10-10-10-10-10-17-17-17-17-17-17-17-17-|
C|-x--x--x--x--x--x--x--x-~-x--x--x--x--x--x--x--x--x--x--x--x--x--x--x--|
G|-8--8--8--8--8--8--8--8-~-8--8--8--8--8--8--8--15-15-15-15-15-15-15-15-|
C|-----------------------------------------------------------------------|

D|-----------------------------------------------------------------------|
A|-----------------------------------------------------------------------|
F|-15-15-15-15-14-14-14-14-10-10-10-10-10-10-10-10~-10-10-10-12-12-12-12-|
C|-x--x--x--x--x--x--x--x--x--x--x--x--x--x--x--x-~-x--x--x--x--x--x--x--|
G|-13-13-13-13-12-12-12-12-8--8--8--8--8--8--8--8-~-8--8--8--10-10-10-10-|
C|-----------------------------------------------------------------------|

D|--------------------------------|
A|--------------------------------|
F|-9-9-9-9-9-9-9-9~-9-9-9-9-9-9-9-|
C|-x-x-x-x-x-x-x-x~-x-x-x-x-x-x-x-|
G|-7-7-7-7-7-7-7-7~-7-7-7-7-7-7-7-|
C|--------------------------------|

[Verse 2]

Guitar 1 (panned left)
D|---------------------------------------------------------------|
A|-6-6-6-6-6-6-6---6-6-6-6-6-8-6---6-6-6-6-6-6-6---5-5-5-5-5-5-5-|
F|-7-7-7-7-7-7-7---7-7-7-7-7-7-7---7-7-7-7-7-7-7---7-7-7-7-7-7-7-|
C|---------------------------------------------------------------| 
G|---------------------------------------------------------------|
C|---------------------------------------------------------------|
   . . . . . . .   . . . . . . .   . . . . . . .   . . .   . .

(x2)
D|-5-5-5-5-5-5-5---5-5-5-5-5-5-5---6-6-6-6-6-6-6---3-3-3-3-3-3-3-|
A|-6-6-6-6-6-6-6---6-6-6-6-6-6-6---6-6-6-6-6-6-6---3-3-3-3-3-3-3-|
F|-7-7-7-7-7-7-7---7-7-7-7-7-7-7---7-7-7-7-7-7-7---4-4-4-4-4-4-4-|
C|-7-7-7-7-7-7-7---7-7-7-7-7-7-7---8-8-8-8-8-8-8---5-5-5-5-5-5-5-|
G|---------------------------------------------------------------|
C|---------------------------------------------------------------|

Guitar 2 (panned right) (x2)
D|-------------------------------------------------------|
A|-------------------------------------------------------|
F|-------------------------------------------------------|
C|-0-0-0-0-0-0---0-0-0-0-0-0---7-7-7-7-7-7---3-3-3-3-3-3-|
G|-0-0-0-0-0-0---0-0-0-0-0-0---7-7-7-7-7-7---3-3-3-3-3-3-|
C|-0-0-0-0-0-0---0-0-0-0-0-0---7-7-7-7-7-7---3-3-3-3-3-3-|

[Prechorus]

Guitar 1
D|-----------------------------------------|
A|-----------------------------------------|
F|----------------------5~-5-5-5-5-5-5-5-5-|
C|-5~-----8~-----0~-----5~-5-5-5-5-5-5-5-5-|
G|-5~-----8~-----0~-----3~-3-3-3-3-3-3-3-3-|
C|-5~-----8~-----0~------------------------|
                           . . . . . . .   slowly release palm
Guitar 2 
D|-3~-----6~-----5~-----3~-|
A|-3~-----6~-----6~-----5~-|
F|-3~-----7~-----7~-----5~-|
C|-5~-----8~-----7~-----5~-|
G|-5~-----8~-----5~-----3~-|
C|-------------------------|

Guitar 3 (clean, panned right)
D|-------5------------5------------5------------5-8~-|
A|-3-5-6---6~---3-5-6---6~---3-5-6---6~---3-5-6------|
F|---------------------------------------------------|
C|---------------------------------------------------|
G|---------------------------------------------------|
C|---------------------------------------------------|

[Chorus]

Guitar 1 
D|---------------------------------------------------------------|
A|---------------------------------------------------------------|
F|---------------------------------------------------------------|
C|-0-0-0-0-0-0-0-0~-0-0-0-0-0-0-0-8-8-8-8-8-8-8-8~-8-8-8-8-8-8-8-|
G|-0-0-0-0-0-0-0-0~-0-0-0-0-0-0-0-8-8-8-8-8-8-8-8~-8-8-8-8-8-8-8-|
C|-0-0-0-0-0-0-0-0~-0-0-0-0-0-0-0-8-8-8-8-8-8-8-8~-8-8-8-8-8-8-8-|
                                                                  
D|---------------------------------------------------------------|
A|---------------------------------------------------------------|
F|--------------------------------5-5-5-5-5-5-5-5~-5-5-5-5-5-5-5-|
C|-3-3-3-3-3-3-3-3~-3-3-3-3-3-3-3-5-5-5-5-5-5-5-5~-5-5-5-5-5-5-5-|
G|-3-3-3-3-3-3-3-3~-3-3-3-3-3-3-3-3-3-3-3-3-3-3-3~-3-3-3-3-3-3-3-|
C|-3-3-3-3-3-3-3-3~-3-3-3-3-3-3-3--------------------------------|

D|---------------------------------------------------------------|
A|---------------------------------------------------------------|
F|---------------------------------------------------------------|
C|-0-0-0-0-0-0-0-0~-0-0-0-0-0-0-0-8-8-8-8-8-8-8-8~-8-8-8-8-8-8-8-|
G|-0-0-0-0-0-0-0-0~-0-0-0-0-0-0-0-8-8-8-8-8-8-8-8~-8-8-8-8-8-8-8-|
C|-0-0-0-0-0-0-0-0~-0-0-0-0-0-0-0-8-8-8-8-8-8-8-8~-8-8-8-8-8-8-8-|
                                                                  
D|---------------------------------------------------------------|
A|---------------------------------------------------------------|
F|--------------------------------5-5-5-5-5-5-5-5~-5-5-5-6-6-6-6-|
C|-3-3-3-3-3-3-3-3~-3-3-3-3-3-3-3-5-5-5-5-5-5-5-5~-5-5-5-6-6-6-6-|
G|-3-3-3-3-3-3-3-3~-3-3-3-3-3-3-3-3-3-3-3-3-3-3-3~-3-3-3-4-4-4-4-|
C|-3-3-3-3-3-3-3-3~-3-3-3-3-3-3-3--------------------------------|

Guitar 2 (x2)
D|-----------------------------------------------------------------------|
A|-----------------------------------------------------------------------|
F|-10-10-10-10-10-10-10-10~-10-10-10-10-10-10-10-17-17-17-17-17-17-17-17-|
C|-x--x--x--x--x--x--x--x-~-x--x--x--x--x--x--x--x--x--x--x--x--x--x--x--|
G|-8--8--8--8--8--8--8--8-~-8--8--8--8--8--8--8--15-15-15-15-15-15-15-15-|
C|-----------------------------------------------------------------------|

D|-----------------------------------------------------------------------|
A|-----------------------------------------------------------------------|
F|-15-15-15-15-14-14-14-14-10-10-10-10-10-10-10-10~-10-10-10-12-12-12-12-|
C|-x--x--x--x--x--x--x--x--x--x--x--x--x--x--x--x-~-x--x--x--x--x--x--x--|
G|-13-13-13-13-12-12-12-12-8--8--8--8--8--8--8--8-~-8--8--8--10-10-10-10-|
C|-----------------------------------------------------------------------|

D|--------------------------------|
A|--------------------------------|
F|-9-9-9-9-9-9-9-9~-9-9-9-9-9-9-9-|
C|-x-x-x-x-x-x-x-x~-x-x-x-x-x-x-x-|
G|-7-7-7-7-7-7-7-7~-7-7-7-7-7-7-7-|
C|--------------------------------|

[Solo]

Guitar 1
D|-----------------------------------------------------------------------------------|
A|-----------------------------------------------------------------------------------|
F|-------------------------------------5-------------------------------5------6------|
C|-------------0-------7-------3-------5-(x16)-0-------7-------3-------5-(x8)-6-(x8)-|
G|-0-0-0-0-0---0-(x16)-7-(x16)-3-(x16)-3-------0-(x16)-7-(x16)-3-(x16)-3------4------|
C|-0-0-0-0-0---0-------7-------3---------------0-------7-------3---------------------|

Guitar 2
D|---------------------------------------------------------------------------------|
A|-------15~---15~-15~-15~------10-10-10---11---11-11---11-11-11-11-11-11-11-11----|
F|--13b-------------------------x--x--x----x----x--x----x--x--x--x--x--x--x--x-----|
C|------------------------------7--7--7----8----8--8----8--8--8--8--8--8--8--8-----|
G|---------------------------------------------------------------------------------|
C|---------------------------------------------------------------------------------|

D|---------------------------------------------------------------|
A|--10/11\10--10---10-10---10-10-10-10-10-10-10-10-10---8/10\8---|
F|--x--x--x---x----x--x----x--x--x--x--x--x--x--x--x----x-x-x----|
C|--7/-8-\7---7----7--7----7--7--7--7--7--7--7--7--7----5/7\5----|
G|---------------------------------------------------------------|
C|---------------------------------------------------------------|

D|------------------------------------------------------18-------17-------------------|
A|-8-8-8-8-8-8-5--5-5-5-5-5-------/15~--15-15-18-15-15-----15-15----15-15-15p12h13----|
F|-x-x-x-x-x-x-x--x-x-x-x-x-----------------------------------------------------------|
C|-5-5-5-5-5-5-2--2-2-2-2-2-----------------------------------------------------------|
G|------------------------------------------------------------------------------------|
C|------------------------------------------------------------------------------------|

D|----------------------------------------------------------------------------------------------------------|
A|--11---11-11-11-11-11-11-11-11-11-11-11-11-------13h15-13~------8h10--8~----8-8-8-8-8-8-9-9-9-9-9-9-9-9-9-|
F|--x----x--x--x--x--x--x--x--x--x--x--x--x------15---------------------------------------------------------|
C|--8----8--8--8--8--8--8--8--8--8--8--8--8-----------------------------------------------------------------|
G|----------------------------------------------------------------------------------------------------------|
C|----------------------------------------------------------------------------------------------------------|

Guitar 3
D|-13-15-13-12h13p12----------13h15-15-|
A|-------------------------------------|
F|-------------------------------------|
C|-------------------------------------|
G|-------------------------------------|
C|-------------------------------------|

[Breakdown]

Guitar 1
D|---------------------------------------------------------------------------|
A|---------------------------------------------------------------------------|
F|---------------------------------------------------------------------------|
C|--------------------------------5-5-5-5-7----------------------------------|
G|-0-0-0-0-0-0-000000-0-0-0-0-0-0-3-3-3-3-5-0-0-0-0-0-000000-0-0-0-0-0-0-0-0-|
C|-0-0-0-0-0-0-000000-0-0-0-0-0-0-----------0-0-0-0-0-000000-0-0-0-0-0-0-0-0-|

D|-6-6-6-6-6-6-6---5-5-5-5-5-5-5-|
A|-6-6-6-6-6-6-6---5-5-5-5-5-5-5-|
F|-7-7-7-7-7-7-7---6-6-6-6-6-6-6-|
C|-8-8-8-8-8-8-8---7-7-7-7-7-7-7-|
G|-------------------------------|
C|-------------------------------|

[Chorus]

Guitar 1 
D|---------------------------------------------------------------|
A|---------------------------------------------------------------|
F|---------------------------------------------------------------|
C|-0-0-0-0-0-0-0-0~-0-0-0-0-0-0-0-8-8-8-8-8-8-8-8~-8-8-8-8-8-8-8-|
G|-0-0-0-0-0-0-0-0~-0-0-0-0-0-0-0-8-8-8-8-8-8-8-8~-8-8-8-8-8-8-8-|
C|-0-0-0-0-0-0-0-0~-0-0-0-0-0-0-0-8-8-8-8-8-8-8-8~-8-8-8-8-8-8-8-|
                                                                  
D|---------------------------------------------------------------|
A|---------------------------------------------------------------|
F|--------------------------------5-5-5-5-5-5-5-5~-5-5-5-5-5-5-5-|
C|-3-3-3-3-3-3-3-3~-3-3-3-3-3-3-3-5-5-5-5-5-5-5-5~-5-5-5-5-5-5-5-|
G|-3-3-3-3-3-3-3-3~-3-3-3-3-3-3-3-3-3-3-3-3-3-3-3~-3-3-3-3-3-3-3-|
C|-3-3-3-3-3-3-3-3~-3-3-3-3-3-3-3--------------------------------|

D|---------------------------------------------------------------|
A|---------------------------------------------------------------|
F|---------------------------------------------------------------|
C|-0-0-0-0-0-0-0-0~-0-0-0-0-0-0-0-8-8-8-8-8-8-8-8~-8-8-8-8-8-8-8-|
G|-0-0-0-0-0-0-0-0~-0-0-0-0-0-0-0-8-8-8-8-8-8-8-8~-8-8-8-8-8-8-8-|
C|-0-0-0-0-0-0-0-0~-0-0-0-0-0-0-0-8-8-8-8-8-8-8-8~-8-8-8-8-8-8-8-|
                                                                  
D|---------------------------------------------------------------|
A|---------------------------------------------------------------|
F|--------------------------------5-5-5-5-5-5-5-5~-5-5-5-6-6-6-6-|
C|-3-3-3-3-3-3-3-3~-3-3-3-3-3-3-3-5-5-5-5-5-5-5-5~-5-5-5-6-6-6-6-|
G|-3-3-3-3-3-3-3-3~-3-3-3-3-3-3-3-3-3-3-3-3-3-3-3~-3-3-3-4-4-4-4-|
C|-3-3-3-3-3-3-3-3~-3-3-3-3-3-3-3--------------------------------|

Guitar 2 (x2)
D|-----------------------------------------------------------------------|
A|-----------------------------------------------------------------------|
F|-10-10-10-10-10-10-10-10~-10-10-10-10-10-10-10-17-17-17-17-17-17-17-17-|
C|-x--x--x--x--x--x--x--x-~-x--x--x--x--x--x--x--x--x--x--x--x--x--x--x--|
G|-8--8--8--8--8--8--8--8-~-8--8--8--8--8--8--8--15-15-15-15-15-15-15-15-|
C|-----------------------------------------------------------------------|

D|-----------------------------------------------------------------------|
A|-----------------------------------------------------------------------|
F|-15-15-15-15-14-14-14-14-10-10-10-10-10-10-10-10~-10-10-10-12-12-12-12-|
C|-x--x--x--x--x--x--x--x--x--x--x--x--x--x--x--x-~-x--x--x--x--x--x--x--|
G|-13-13-13-13-12-12-12-12-8--8--8--8--8--8--8--8-~-8--8--8--10-10-10-10-|
C|-----------------------------------------------------------------------|

D|--------------------------------|
A|--------------------------------|
F|-9-9-9-9-9-9-9-9~-9-9-9-9-9-9-9-|
C|-x-x-x-x-x-x-x-x~-x-x-x-x-x-x-x-|
G|-7-7-7-7-7-7-7-7~-7-7-7-7-7-7-7-|
C|--------------------------------|

Guitar 3 (last chorus only, panned right and very faint)
D|-----------------------------------------------------|
A|-----------------------------------------------------|
F|-101010-9-10-10-10-9-10-7---101010-9-10-10-10-9-10-7-|
C|-----------------------------------------------------|
G|-----------------------------------------------------|
C|-----------------------------------------------------|

D|---------------------------------------------------------------------------|
A|-----------10-10-8-10----10-11---------------------------------------------|
F|-101010---------------10-------10-10-10-10-10-10-10-10-12-12-12-12-9-9-9-9-|
C|--------10-----------------------------------------------------------------|
G|---------------------------------------------------------------------------|
C|---------------------------------------------------------------------------|

[Outro]

Guitar 1
D|-------------------------------------------|
A|-------------------------------------------|
F|-------------------------------------------|
C|--------------------------------4-4-4-4-7/-|
G|-0-0-0-0-0-0-111111-0-0-0-0-0-0-3-3-3-3-5/-|
C|-0-0-0-0-0-0-111111-0-0-0-0-0-0------------|



************************************

| x  Dead note
| h  Hammer-on
| p  Pull-off
| b  Bend
| /  Slide up
| ~  Vibrato

************************************
Suggest correction
Give kudos to tab author, rate the tab!
1 2 3 4 5
comments
print report bad tab
guest
You may want to rate the tab now too:
select rating
Wanna post a correction for this tab? Suggest correction