Oops, an error
Loading. Please wait.

Same Book But Never The Same Page Tab

4,782 views 21 this week
4 commentsread comments
1 2 3 4 5
accurate
x 6
add to favorites
launch autoscroll
font size
0
reset
how to read this tab
guitar tuner
Autoscroll
slow
fast
+/-
esc
set tempo
stop
Help us to improve Ultimate-Guitar.com Take our survey!
×
Author
Difficulty
Tuning
intermediate
C G C F A D
This is my first tab.  I figured out the rhythm for this song as I play the rhythm 
part of this song.  I will work on the lead part (no promises that it'll get done, 
I don't have a lot of free time). Once again, this is if I get around to doing 
that.  If you beat me to it, let me know what you think the parts are in the 
comments so I can add them in if they are right!  I will try to be as active as 
possible and keep editing this (this is my second edit since I posted it a few 
days ago).  Hope this is good for a first tab.

INTRO: 

D|---------------------------------|
A|------7--------------7-----------|
F|-7------7----7----5--------------| All natural harmonics (thanks to noble.blake)
C|---7-----------7--------5--------| 
G|---------------------------------|
C|---------------------------------|


Lead: A little bit of gain

D|------------------------------------------------------|
A|------------------------------------------------------|
F|------------------------------------------------------| x2
C|------------------------------------------------------| 
G|-9-9-9---5---9-9-9-9--7-7--5---5--4-4-4-5-4-4-5-------|
C|-0-0-0---0---0-0-0-0--0-0--0---5--5-5-5-5-5-5-5-------|
          x5                    x8


VERSE: "I've lost a part of me.."

D|---------------------------|
A|---------------------------|
F|---------------------------|     (x4)
C|-99--00--55-55-------------| The timing changes, be aware of that.
G|-99--00--55-55-------------|
C|-99--00--55-55-------------|
   xx  xx  xx xx

The intro harmonics are played mostly throughout this verse.

|------------------------------------------------------|

END W/:

D|---------------------------|
A|---------------------------|
F|---------------------------|
C|--5------------------------|   Let it ring out.
G|--5------------------------|
C|--5------------------------|

CHORUS:

D|---------------------------|
A|---------------------------|
F|---------------------------| Each is strummed 8 times.
C|-9-5-0-7-----5-7-9-0-------| The parts @ "I can't stand it" are strummed 5 
G|-9-5-0-7-----5-7-9-0-------| times each.
C|-9-5-0-7-----5-7-9-0-------|
               ^ "I can't stand it.."

END W/:

D|---------------------------|
A|---------------------------|
F|---------------------------|
C|--5------------------------|   Let it ring out.
G|--5------------------------|
C|--5------------------------|

[VERSE REPEATED, BUT ONLY TWICE THIS TIME]

PRE-CHORUS - "I'm a sucker for complication.."

D|---------------------------|
A|---------------------------|  (x2)
F|---------------------------|  Each is strummed 5 times.
C|-9-7-5-0-5-----------------|  
G|-9-7-5-0-5-----------------|
C|-9-7-5-0-5-----------------|

END W/:

D|---------------------------|
A|---------------------------|  5's are played eight times. 
F|---------------------------|  You end with the 7's being played only once.
C|-5----7--------------------|  Do not let the 7's ring.
G|-5----7--------------------|
C|-5----7--------------------|
    

[REPEAT CHORUS]

END W/ THIS INSTEAD : 


D|---------------------------|
A|---------------------------| Both played once.  Let them ring out.
F|---------------------------|  
C|-5----7--------------------|
G|-5----7--------------------|
C|-5----7--------------------|

BRIDGE:

D|---------------------------|
A|---------------------------| A little hard to tell how many strums it is.
F|---------------------------| Listen to the song to figure it out.
C|--5-7-9-7---5-7-9-2-4-5----|
G|--5-7-9-7---5-7-9-2-4-5----|
C|--5-7-9-7---5-7-9-2-4-5----|
                    ^"You're just a notch in the wall.."

END W/:

D|---------------------------|
A|---------------------------|
F|---------------------------|
C|--5------------------------|  Let it ring out. 
G|--5------------------------|
C|--5------------------------|

[REPEAT CHORUS], but end with this:

D|---------------------------|
A|---------------------------| (x3)
F|---------------------------|  8 strums for each
C|-5-7-----------------------|
G|-5-7-----------------------|
C|-5-7-----------------------|

END W/ : 

D|---------------------------|
A|---------------------------|
F|---------------------------|
C|----0----------------------|  Let this ring out.
G|----0----------------------|
C|----0----------------------|


BREAKDOWN - OUTRO:

D|---------------------------|
A|---------------------------| This is the lead up to the breakdown.
F|---------------------------| 
C|---------------------------| 
G|---------------------------|
C|--0-0-0-0-0-0-0-0-0-0-0-0--|

D|---------------------------|
A|---------------------------|
F|---------------------------| 
C|---------------------------|
G|--0-0-0-0-0-0--------------|
C|--0-0-0-0-0-0--------------|
    ^"YOU BREAK ME, DOWN!" until :



D|---------------------------|
A|---------------------------|
F|---------------------------| 
C|--0-0-0-0-0-0--------------|
G|--0-0-0-0-0-0--------------|
C|--0-0-0-0-0-0--------------|
    ^"WE NEVER MET AT MIDDLE GROUND!" - end of the song.
Suggest correction new What's this?
You can suggest a correction to this tab. Community and Mods will review your correction and vote to approve or reject it.
comments
print report bad tab
4 comments total. Showing first comments.
+1 reply
noble.blake 13 wrote on March 29 2014, 03:12 pm

The intro is natural harmonics.

D|--------------------------|-----------------------------|
A|-----------<7.5>~---------|-----------------<7.5>~------|
F|-<7.5>~----------<7.5>~---|-<7.5>~----<5.5>~------------|
C|------<7.5>~--------------|------<7.5>~----------<5.5>~-|
G|--------------------------|-----------------------------|
C|--------------------------|-----------------------------|

0 reply
ASlothOnASegway 89 wrote on April 12 2014, 06:12 pm

You are correct, I'll change it.

0 reply
Alpha_Wolf 1,061 wrote on July 31 2014, 07:02 pm

I'm pretty sure this song is in Drop A. I know the last breakdown is, and I don't see why they'd use two tunings for one song. Unless it's on a 7-string for some weird reason?

guest
You may want to rate the tab now too:
select rating
Please do not post tabs as comments. Select "correction" instead!