Oops, an error
Loading. Please wait.

Show Em The Ropes Tab

version 2
version 2

Whole song

Interactive

8,797 views 9 this week
3 commentsread comments
1 2 3 4 5
excellent!
x 5
add to favorites
launch autoscroll
font size
0
reset
how to read this tab
guitar tuner
Autoscroll
slow
fast
+/-
esc
set tempo
stop
Help us to improve Ultimate-Guitar.com Take our survey!
×
Author
----------------------------------------------------------
          Show Em' The Ropes - A Day To Remember
----------------------------------------------------------
Tabbed by: Kristyn Lee
Email: spot_the_village_loony_836@hotmail.com

Tuning: Drop C

Intro/Verse
Guitar 1
D|----------------------------------8---------------|
A|---10-10-10-11-10-8-6h8h10-8-10-6---6h8-8-8h10----|
F|-7------------------------------------------------|
C|--------------------------------------------------|
G|--------------------------------------------------|
C|--------------------------------------------------|
                                                    |x2
D|------------8-----------------------8-------------|
A|--8h10-10-6---6h8-8-8h10--8h10-10-6---6h8-8-8h10--|
F|--------------------------------------------------|
C|--------------------------------------------------|
G|--------------------------------------------------|
C|--------------------------------------------------|

Intro/verse
guitar 2
D|---------------------------------------|
A|---------------------------------------|
F|---------------------------------------|x2
C|-----------------------------55555555--|
G|--00000000-88888888-33333333-33333333--|
C|--00000000-88888888-33333333-----------|
both guitars
D|-------------------------------|
A|-------------------------------|
F|---7~~--10~~-------------------|
C|---x----x----------------------|
G|---5~~--8~~---8\\0~--0~--------|
C|--------------8\\0~--0~--------|

verse
D|----------------------|   |----------------------|
A|----------------------|   |----------------------|
F|----------------------|x2 |----------------------|
C|----------------------|   |----------------------|
G|--0-000000-000000~----|   |--5-555555-5555555~---|
C|--0-000000-000000~----|   |--5-555555-5555555~---|
      ...... .....               ...... ......

D|---------------------------------|
A|---------------------------------|
F|---------------------------------|
C|---------------------------------|
G|--7p0-8p0-10p0-8p0-7h8p7h8h10*---|
C|---------------------------------|

D|----------------------|   |----------------------|
A|----------------------|   |----------------------|
F|----------------------|x2 |----------------------|
C|----------------------|   |----------------------|
G|--0-000000-000000~----|   |--5-555555-5555555~---|
C|--0-000000-000000~----|   |--5-555555-5555555~---|
      ...... .....               ...... ......
D|----------------------------------|
A|----------------------------------|
F|----------------------------------|
C|----------------------------------|
G|--7p0-8p0-10p0-8p0-7h8p7\5--------|
C|---------------------------8\\\0--|

Chorus 
i cant hear the lead riff :/  sorry
D|-------------------------------------------------------------|
A|-------------------------------------------------------------|
F|-------------------------------------------------------------|x2
C|--777777777777-333333333333----------------------------------|
G|--555555555555-111111111111-555555555555-888888-101010101010-|
C|----------------------------555555555555-888888-101010101010-|
post-chorus   "lets start over..."
D|----------------------------------------|
A|----------------------------------------|
F|----------------------------------------|x2
C|----------------------------------------|
G|--00000000-88888888-33333333-33332222---|
C|--00000000-88888888-33333333-33332222---|

Repeat verse
Repeat chorus & post chorus


D|----------------------|
A|----------------------|
F|----------------------|
C|----------------------|
G|--0~~~--00--0~~~--0---|
C|--0~~~--00--0~~~--0---|
          ..        .
breakdown
D|-----------------------------------------|
A|-----------------------------------------|
F|-----------------------------------------|x4
C|-----------------------------------------| 
G|--00000-0-0-00000000-00000-0-0-000-000---|
C|--00000-0-0-00000000-00000-0-0-000-000---|
    .....     ........ .....     ... ...


| .  palm mute
| /  slide up
| \  slide down
| h  hammer-on
| p  pull-off
| ~  vibrato
| *  harmonic
| x  Mute note
===========================================================
Suggest correction
comments
print report bad tab
3 comments total.
0 reply
Morve38 232 wrote on October 26 2009, 04:54 pm

The lead riff isn't correct, but the rest is good. If you have guitarpro you can check out my version of this, I slowed the song down and figured out the lead riff for the intro and chorus.

0 reply
4coustiks 98 wrote on December 1 2009, 06:13 pm

it seems well

0 reply
DomRusky 479 wrote on January 30 2013, 12:46 pm

Yeah the lead riff is really off at the start :p sorry, the rest of it is awesome though! cheers

the riff should be:

E|-----------------------------------8------------|
B|--10-10-10-11-10-8-6h8h10-8-10-8-6---6h8-8-8h10-|
G|-7----------------------------------------------|

and just repeat that 4times

guest
You may want to rate the tab now too:
select rating
Wanna post a correction for this tab? Suggest correction