Oops, an error
Loading. Please wait.

Since U Been Gone Bass Tab

version 2
version 2

Whole song

Interactive

2,975 views 1 this week
no commentswrite comment
1 2 3 4 5
3 more votes to show rating
add to favorites
launch autoscroll
font size
0
reset
guitar tuner
Autoscroll
slow
fast
+/-
esc
set tempo
stop
Help us to improve Ultimate-Guitar.com Take our survey!
×
Author
Tuning
C G C F A D
F|----------------------------------------------------|
C|-3(x16)--3(x13)-555-0(x13)-222-3(x13)-555-0(x13)----| 
G|----------------------------------------------------|
C|-------------------------------------------------22-|

0:18
F|-------------------------|-----------------------------------------------------|
C|o-----------------------o|-----------------------------------------------------| 
G|o-----------------------o|-----------------------------------------------------|
C|--3(x13)-555-0(x13)-222--|-33--3333333--3355500--0000000--0022233--3333333--35-|

Chorus 0:44
F|---------------------|-------------------------------------------------|
C|o-------------------o|-------------------------------------------------|
G|o-------------------o|-------------------------------------------------|
C|--77788883-33333333--|-00088883-33333\---55555555-00000000-33333333-5~-|

1:03
F|--------------------|
C|--------------------| 
G|--------------------|
C|-33--3333333--3300--|

1:07
F|----------------------------------------------------|
C|----------------------------------------------------| 
G|----------------------------------------------------|
C|-3---333--3---333--3-2-5--0---000--0---000--3-0-3-5-|

F|-------------------------------------------------------|
C|-------------------------------------------------------| 
G|-------------------------------------------------------|
C|-3---333--3---333--3-2-5-5--0---000--0---0-3-0-3-0-5-2-|

F|------------------------------------------------------|
C|------------------------------------------------------| 
G|------------------------------------------------------|
C|-3---333--3---333-3-3-2-5-5-0---000--0---000--3-0-5-5-|

F|----------------------|
C|----------------------| 
G|----------------------|
C|-3---333--3---333-3-5-|

Chorus 1:33
F|---------------------|-------------------------------------------------------|
C|o-------------------o|-------------------------------------------------------|
G|o-------------------o|-------------------------------------------------------|
C|--77788883-33333333--|-00088883-33333\---55555555-00000000-33333333-55555555-|

Bridge 1:52
F|--------------------------------------------------------------------|
C|--------------------------------------------------------------------| 
G|--------------------------------------------------------------------|
C|-88-888-80000000088-888-833-3333388-888-8-xx--xxx-88-888-8-33333333-|

*break*
2:13
F|--------------------------------|
C|--------------------------------|
G|--------------------------------|
C|-2--77788-8-33-3-3-77788-8-33-3-|

Chorus 2:22
F|----------------------------------------------|
C|----------------------------------------------| 
G|----------------------------------------------|
C|-77788-83-3-3-3—77788-83-3-3-3-00088-83-3-3-3-|

2:33
F|---------------------------------------------------|
C|---------------------------------------------------|
G|-----------------0-111------------0-111------------|
C|-5555555500000000------3-333--333-------3-333--3-3-|

2:45
F|-------------------------------------------------------------|
C|-------------------------------------------------------------| 
G|-------------------------------------------------------------|
C|-00088883-33-3335-5555555000000005555555500000000333333335~~-|

3:01
F|--------------|
C|--------------| 
G|--------------|
C|-3(x32)-3~~~~-|
Tabbed by Dave Vucko
Suggest correction
Give kudos to tab author, rate the tab!
1 2 3 4 5
comments
print report bad tab
guest
You may want to rate the tab now too:
select rating
Wanna post a correction for this tab? Suggest correction