Oops, an error
Loading. Please wait.

Since U Been Gone Tab

version 2
version 2

Whole song

Interactive

113,401 views 162 this week
7 commentsread comments
1 2 3 4 5
excellent!
x 65
add to favorites
launch autoscroll
font size
0
reset
how to read this tab
guitar tuner
Autoscroll
slow
fast
+/-
esc
set tempo
stop
Help us to improve Ultimate-Guitar.com Take our survey!
×
Author
Difficulty
Tuning
novice
C G C F A D
Artist: A Day To Remember
Song: Since U Been Gone
Album:(first released at myspace, after high popularity they released a EP)
tabbed by: necriononguitar (that to MidgtGuitarist for pre-tabbing)
e-mail (No freakin SPAM!): tim.rathgen@gmx.de

REAL FANS SUPPORT BANDS BY PURCHASING THEIR CDS!

Tuning: Drop C


[Intro] 

(clean)
D|---------------------------------|
A|---------------------------------|
F|---------------------------------|
C|---------------------------------|
G|---0-0-0-0-0-0-0-0---------------|
C|---3-3-3-3-3-3-3-3---x2----------|


[Verse 1] 

(clean)
D|---------------------------------------------------------------------------|
A|---------------------------------------------------------------------------|
F|---------------------------------------------------------------------------|
C|---------------------------------------------------------------------------|
G|--0-0-0-0-0-0-0-0---0-0-0-0-0-0-0-0---0-0-0-0-0-0-0-0---0-0-0-0-0-0-0-0----|
C|--3-3-3-3-3-3-3-3---3-3-3-3-3-5-5-5---0-0-0-0-0-0-0-0---0-0-0-0-0-2-2-2----|

D|----------------------------------------------------------------------|
A|----------------------------------------------------------------------|
F|----------------------------------------------------------------------|
C|----------------------------------------------------------------------|
G|--0-0-0-0-0-0-0-0---0-0-0-0-0-0-0-0---0-0-0-0-0-0-0-0---0-0-0-0-0-----|
C|--3-3-3-3-3-3-3-3---3-3-3-3-3-5-5-5---0-0-0-0-0-0-0-0---0-0-0-0-0-----|


 Part II: (Distortion)
D|--------------------------------------------------------------------|
A|--------------------------------------------------------------------|
F|--------------------------------------------------------------------|
C|--------------------------------------------------------------------|
G|--(2-2)---3-3-3-3-3-3-3-3---3-3-3-3-3-5-5-5---0-0-0-0-0-0-0-0-------|
C|--(2-2)---3-3-3-3-3-3-3-3---3-3-3-3-3-5-5-5---0-0-0-0-0-0-0-0-------|
    . .    . . . . . . . .   . . . . . . . .   . . . . . . . .
                                                               /I\
D-----------------------------------------------------|                    <-(repeat)-I
A-----------------------------------------------------|
F-----------------------------------------------------|
C-----------------------------------------------------|
G--0-0-0-0-0-2-2-2------------------------------------|
C--0-0-0-0-0-2-2-2------------------------------------|
   . . . . . . . .

D|---------------------------------------------------------------------------|
A|---------------------------------------------------------------------------|
F|---------------------------------------------------------------------------|
C|-------3-------3--------3-------5---------0-------0--------0-------2-------|
G|---3-3-3-3-3-3-3-3--3-3-3-3-5-5-5-5---0-0-0-0-0-0-0-0--0-0-0-0-2-2-2-2-----|
C|---3-3-3-3-3-3-3-3--3-3-3-3-5-5-5-5---0-0-0-0-0-0-0-0--0-0-0-0-2-2-2-2-----|
    . .   . . .   .  . .   . . .   .   . .   . . .   .  . .   . . .   .

D|-----------------------------------------|
A|-----------------------------------------|
F|-----------------------------------------|
C|-------3-------3---------3---5-----------|
G|---3-3-3-3-3-3-3-3---3-3-3-3-5-----------|
C|---3-3-3-3-3-3-3-3---3-3-3-3-5-----------|
    . .   . . .   .   . .   .

 (Some 2. Guitar can play this:)
D|--------8-----------------------8-------------|
A|--------10----------------------10------------|
F|-----10-------or simply this----10------------|
C|--10----------------------------10------------|
G|----------------------------------------------|
C|----------------------------------------------|


[Chorus] 

(Distortion+Chorus Effects)
D|-------------------------------------------|
A|-------------------------------------------|
F|-------------------------------------------|
C|---7-7-7-8-8-8-8--3-3-3-3-3-3-3-3----------| x3
G|---7-7-7-8-8-8-8--3-3-3-3-3-3-3-3----------|
C|---7-7-7-8-8-8-8--3-3-3-3-3-3-3-3----------|

D|------------------------------------------------------------------------|
A|------------------------------------------------------------------------|
F|------------------------------------------------------------------------|
C|----5-5-5-5-5-5-5-5---0-0-0-0-0-0-0-0---2-2-2-2-2-2-2-2--5~-------------|
G|----5-5-5-5-5-5-5-5---0-0-0-0-0-0-0-0---2-2-2-2-2-2-2-2--5~-------------|
C|----5-5-5-5-5-5-5-5---0-0-0-0-0-0-0-0---2-2-2-2-2-2-2-2--5~-------------|


 Some 2. Guitar: (i can only use MigdtGuitarists way of playing it... its just a background noise)
D|--------------------------------------------------------|
A|--------------------------------------------------------|
F|---14-14-14-15-15-15-15------------17----------17-------|
C|-------------------------15--15-15----15-15-15----15----|
G|--------------------------------------------------------|
C|--------------------------------------------------------|


[Interlude]

(Distortion)
D|------------------------------------------------------------|
A|------------------------------------------------------------|
F|------------------------------------------------------------|
C|-------3-----3---3-------3----------------------------------|
G|------------------------------------------------------------|
C|---3-3---3-3---3-----3-3---3-2-0--3^(pinch, harmonic)-------|
    . .   . .   .     . .   .


[Verse 2] 

(Distortion)
D|------------------------------------------------------------------|
A|------------------------------------------------------------------|
F|------------------------------------------------------------------|
C|---3---333--3---333-3---5--5-5---0---000--0---000-0---2--2-2------|  x2
G|---3---333--3---333-3---5--5-5---0---000--0---000-0---2--2-2------|
C|---3---333--3---333-3---5--5-5---0---000--0---000-0---2--2-2------|
    .   ...  .   ... .   .  .     .   ...  .   ... .   .  .


D|----------------------------------------------------------------|
A|----------------------------------------------------------------|
F|----------------------------------------------------------------|
C|---3---333--3---333--3-3--3-5---0---000--0---000--0-2--2-2------|
G|---3---333--3---333--3-3--3-5---0---000--0---000--0-2--2-2------|
C|---3---333--3---333--3-3--3-5---0---000--0---000--0-2--2-2------|
    .   ...  .   ...  .    .     .   ...  .   ...  .    .


D|-----------------------------x-----|
A|-----------------------------x-----|
F|-----------------------------x-----|
C|---3---333--3---333--3-5--x--------|
G|---3---333--3---333--3-5--x--------|
C|---3---333--3---333--3-5--x--------|
    .   ...  .   ...  .


                      ////Repeat Chorus\\\\

[Bridge] 

(Distortion)
D|-----------------------------------------------------|
A|-----------------------------------------------------|
F|-----------------------------------------------------|
C|--8-8-8-8-8-8-8-8---3-3-3-3-3-3-3-3------------------|
G|--8-8-8-8-8-8-8-8---3-3-3-3-3-3-3-3---x2-------------|
C|--8-8-8-8-8-8-8-8---3-3-3-3-3-3-3-3------------------|

D|----------------------------x----------------x---------|
A|----------------------------x---x------------x--x------|
F|-------------------------x--x---x---------x--x--x------|
C|--8-8-8-8-8-8-8-8----x---x------x------x--x-----x------|
G|--8-8-8-8-8-8-8-8----x---x-------------x--x------------|
C|--8-8-8-8-8-8-8-8----x-----------------x---------------|
(hold left hand atthe first mute at about 7th fret,second time at 2-4th fret)

D|--------------------------------------------|
A|--------------------------------------------|
F|--------------------------------------------|
C|---8-8-8-8-8-8-8-8--8-8-8-8-8-8-8-8---------|
G|---8-8-8-8-8-8-8-8--8-8-8-8-8-8-8-8---------|
C|---8-8-8-8-8-8-8-8--8-8-8-8-8-8-8-8---------|


[Breakdown] 

(Synthed Guitar or Synthesizer)
D|------------------------------------------------------|
A|------------------------------------------------------|
F|------------------------------------------------------|
C|------------------------------------------------------| x4 (whole breakdown)
G|---------------------------8-8---8~---(8\)------------|
C|---7-7--8-8---8~---(8\)-------------------------------|

 Guitar (Distortion)
D|------------------------------------------|
A|------------------------------------------|
F|------------------------------------------|
C|------------------------------------------|
G|--------------------8-8--8~--8\-----------|
C|--7-7-7--8-8---8\-------------------------|

D|------------------------------------------|
A|------------------------------------------|
F|------------------------------------------|
C|------------------------------------------|
G|----------------------3-3---3-------------|
C|---7-7-7--8-8---8\----3-3---3-------------|
                       . .   .


[Chorus] lil different: 

(Distortion)
D|-------------------------------------------|
A|-------------------------------------------|
F|-------------------------------------------|
C|---7-7-7-8-8-8-8--3-3-3-3-3-3-3-3----------| x2
G|---7-7-7-8-8-8-8--3-3-3-3-3-3-3-3----------|
C|---7-7-7-8-8-8-8--3-3-3-3-3-3-3-3----------|

D|-------------------------------------------|
A|-------------------------------------------|
F|-------------------------------------------|
C|---0-0-0-8-8-8-8--3-3-3-3-3-3-3-3----------|
G|---0-0-0-8-8-8-8--3-3-3-3-3-3-3-3----------|
C|---0-0-0-8-8-8-8--3-3-3-3-3-3-3-3----------|

D|----------------------------------------|
A|----------------------------------------|
F|----------------------------------------|
C|----5-5-5-5-5-5-5-5---0-0-0-0-0-0-0-0---|
G|----5-5-5-5-5-5-5-5---0-0-0-0-0-0-0-0---|
C|----5-5-5-5-5-5-5-5---0-0-0-0-0-0-0-0---|


 Part II:
D|-----------------------------------------------------------------|
A|-----------------------------------------------------------------|
F|-----------------------------------------------------------------|
C|---7---888---3---333---333------7---888---3----333-3---7-7-------|
G|---7---888---3---333---333------7---888---3----333-3---7-7-------|
C|---7---888---3---333---333------7---888---3----333-3---7-7-------|
    .   ...   .   ...   ...      .   ...   .    ... .   . .

D|-------------------------------------------|
A|-------------------------------------------|
F|-------------------------------------------|
C|---0-0-0-8-8-8-8--3-3-3-3-3-3-3-3----------|
G|---0-0-0-8-8-8-8--3-3-3-3-3-3-3-3----------|
C|---0-0-0-8-8-8-8--3-3-3-3-3-3-3-3----------|

D|----------------------------------------|
A|----------------------------------------|
F|----------------------------------------|
C|----5-5-5-5-5-5-5-5---0-0-0-0-0-0-0-0---|
G|----5-5-5-5-5-5-5-5---0-0-0-0-0-0-0-0---|
C|----5-5-5-5-5-5-5-5---0-0-0-0-0-0-0-0---|

D|------------------------------------------------------------------------|
A|------------------------------------------------------------------------|
F|------------------------------------------------------------------------|
C|----5-5-5-5-5-5-5-5---0-0-0-0-0-0-0-0---2-2-2-2-2-2-2-2--5~-------------|
G|----5-5-5-5-5-5-5-5---0-0-0-0-0-0-0-0---2-2-2-2-2-2-2-2--5~-------------|
C|----5-5-5-5-5-5-5-5---0-0-0-0-0-0-0-0---2-2-2-2-2-2-2-2--5~-------------|


[Outro] 

(clean, fades in)
D|---------------------------------|
A|---------------------------------|
F|---------------------------------|
C|---------------------------------|
G|---0-0-0-0-0-0-0-0---------------|
C|---3-3-3-3-3-3-3-3---x4----------|

and thats it! i hope u enjoyed, dont forget to rate and comment.
thanks again to MidgtGuitarist!

Cheers...



************************************

. = Palm-Muted
~ = hold note
^ = vibrate
p = pull off
h = hammer on
/ = slide up
\ = slide down

************************************
Suggest correction
comments
print report bad tab
7 comments total. Showing first comments.
0 reply
emilbullforever 90 wrote on March 24 2010, 05:28 pm

great tab 5*

0 reply
jaysk8s 159 wrote on March 26 2010, 05:14 am

i love this song and this tab

0 reply
bb155558 41 wrote on June 7 2010, 09:55 pm

good job man this rocks
you play the chorus the same way i do

guest
You may want to rate the tab now too:
select rating
Please do not post tabs as comments. Select "correction" instead!