Oops, an error
Loading. Please wait.

Sound The Alarm Bass Tab

version 1
version 1

Whole song

Interactive

22 views 1 this week
no commentswrite comment
1 2 3 4 5
3 more votes to show rating
add to favorites
launch autoscroll
font size
0
reset
guitar tuner
Autoscroll
slow
fast
+/-
esc
set tempo
stop
Help us to improve Ultimate-Guitar.com Take our survey!
×
Author
Difficulty
Tuning
novice
C G C F A D
A Day to Remember - Sound the Alarm

Tabbed by: Ash (XxThreeCheersxX)
email: burdickash@gmail.com

Intro
F|--------------------------------|
C|--------------------------------|
G|--------------------------------|
C|-0~-----------------------------|

(Singing) 
F|-------------------------------------------------------------------------------|
C|-------------------------------------------------------------------------------|
G|-------------------------------------------------------------------------------|
C|-0-0-0--0-0-0~----0--0-0-0~----0-0-0--0-0-0--0-0-0--0-0-0~----0--0-0-0~--------|
                                                                                                 x 2
F|------------------------------------------------------------------------------------------|
C|------------------------------------------------------------------------------------------|
G|------------------------------------------------------------------------------------------|
C|-8-8-8--8-8-8~----8--8-8-8~----8-8-8--8-8-8--10-10-10--10-10-10~----10--10-10-10~---------|

(Screaming)
F|-------------------------------------------------------------------------------|
C|-------------------------------------------------------------------------------|
G|-------------------------------------------------------------------------------| x 4
C|-0-0-0--0-0-0~----0--0-0-0~----0-0-0--0-0-0--0-0-0--0-0-0~----0--0-0-0~--------|

End on:
F|--------------------------------|
C|--------------------------------|
G|--------------------------------|
C|-0~-----------------------------|

(Here's the piano part at the end in case you want to play it; it's pretty fun)
F|---------14~----------------13~------------13--11~------------13--14~--------|
C|-----------------------------------------------------------------------------|
G|-----16-----------------16---------------------------------------------------|
C|-16-----------------15-----------------12-----------------12-----------------|

Happy playing!

************************************

| x   Dead note
| g   Grace note
| (n) Ghost note
| h   Hammer-on
| p   Pull-off
| r   Release
| >   Accented note
| t   Tapping
| b   Bend
| br  Bend release
| pb  Pre-bend
| pbr Pre-bend release
| /   Slide up
| \   Slide down
| ~   Vibrato
| s   Slap
| P   Pop
| PM  Palm mute
| TR  Trill
| N   Tremolo

************************************
Suggest correction
Give kudos to tab author, rate the tab!
1 2 3 4 5
comments
print report bad tab
guest
You may want to rate the tab now too:
select rating
Wanna post a correction for this tab? Suggest correction