Oops, an error
Loading. Please wait.

Speak Of The Devil Bass Tab

version 1
version 1

Whole song

Interactive

3,938 views 3 this week
no commentswrite comment
1 2 3 4 5
excellent!
x 2
add to favorites
launch autoscroll
font size
0
reset
guitar tuner
Tab Pro tools
  • play this tab
  • loop segment
  • change instrument
  • show fretboard
  • metronome
Autoscroll
slow
fast
+/-
esc
set tempo
stop
Contributor
-------------------------------------------------------------------------------
			     Speak of the Devil - A Day To Remember
-------------------------------------------------------------------------------

Tabbed By : xLuisitox
e-mail:     luis.antonio.92@gmail.com

Bass Tab
Tuning: Drop C  (C G C F)


  (00:05)     (00:07)              (00:10)  
F|-----------|--------------------|-----------------|
C|-----------|--------------------|----000000000----|
G|Starts-----|-1-1-x-1-1-x-0-0000-|--------------333|
C|-with---0~-|--------------------|0-0--------------|
                                   ^--This one x3--^

  The 4th time end like this:
F|-------------------------------------|
C|----00000000-------------------------|
G|-------------331-1-1-x-1-1-x-0000----|
C|0-0------------------------------3330|


  (00:20)                            (00:25)
F|----------------------------------|----------------------------------------|
C|----------------------------------|----------------------------------------|
G|----------------------------------|------------------1-1---1-1---3-333333--|
C|-0-000000000000-0-0-0000000-03653-|-0-000000000000-0-----0-----0-----------|

  (00:29)                            (00:34)
F|----------------------------------|----------------------------------------|
C|----------------------------------|----------------------------------------|
G|----------------------------------|------------------1-1---1-1---3-333333--|
C|-0-000000000000-0-0-0000000-03653-|-0-000000000000-0-----0-----0-----------|

  (00:39)
F|-------|
C|-------|
G|-1~-3~-|
G|-------|


  (00:44) Chorus  "I'm on the edge of a rooftop"      
F|----------------------------------------------------------------------|
C|----------------------------------------------------------------------|
G|-5-55555555555555-1-11111111111111------------------3-33333333333333--| x2
C|-----------------------------------3-33333333333333-------------------|

  (01:04)   (01:09)                          (01:14)
F|---------|--------|-----------------------|-------------------------------|
C|---------|-Slide--|--Catch the rhythm-----|-------------------------------|
G|---------|--up----|-----------------------|----------1-1---1-1---3-3---333|
C|-0~--0x--|----12/-|-0-00000--0-00000-0365-|-0-00000------0-----0-----0----|
                     ^--------------------This part x2---------------------^

  (01:29)
F|------------|
C|-------HARD!|
G|-1~-3~- XXX-|
C|------------|


  (01:34) Chorus  "I'm on the edge of a rooftop"
F|----------------------------------------------------------------------|
C|----------------------------------------------------------------------|
G|-5-55555555555555-1-11111111111111------------------3-33333333333333--| x2
C|-----------------------------------3-33333333333333-------------------|

  (01:54)
F|---------|
C|---------|
G|-5~--5---|
C|---------|


  (02:04)   BREAKDOWN!                               (02:13)
F|------------------------------------------------|   |--------------------|
C|------------------------------------------------|   |--------------------|
G|-55----------------------55---------------------|x2 |--------------------|
C|----000-000-0-0-000-000-----000-000-0-0-000-000-|   |-8~-(Vibrato)-------|

  (02:14)   Breakdown continues:                           (02:24)
F|----------------------------------------------------|   |----------------|
C|----------------------------------------------------|   |---Slides up----|
G|-55-----------------------55------------------------|x2 |-1~--3/---------|
C|----000-000-0-000-000000-----000-000-0-000-000000---|   |----------------|


  (02:29) Chorus  "I'm on the edge of a rooftop"
F|--------------------------------------------------------------------|
C|--------------------------------------------------------------------|
G|-5-55555555555555-1-11111111111111------------------3-33333333333333| x4
C|-----------------------------------3-33333333333333-----------------|

  (03:09)
F|---------|
C|---------|
G|-5~--5---|
C|---------|

  (03:14)
F|------------------------------------------------------------------|
C|------------------------------------End---------------------------|
G|-5----------------5------------------with:------------------------|
C|---00000000000000---00000000000000-----6530-----------------------|


============================================================================

| /  slide up
| \  slide down
| h  hammer-on
| p  pull-off
| ~  vibrato
| +  harmonic
| x  Mute note
============================================================================
comments
We did not receive enough feedback on this tab! Please rate:
print report bad tab
1 2 3 4 5
I want to post or [tab]
guest
You may want to rate the tab now too:
select rating
Please do not post tabs as comments. Select "correction" instead!