Oops, an error
Loading. Please wait.

Start The Shooting Tab

version 1
version 1

Whole song

Interactive

9,659 views 1 this week
2 commentsread comments
1 2 3 4 5
please rate
add to favorites
launch autoscroll
font size
0
reset
how to read this tab
guitar tuner
Tab Pro tools
  • play this tab
  • loop segment
  • change instrument
  • show fretboard
  • metronome
×
Best way to learn
"Start The Shooting"
Autoscroll
slow
fast
+/-
esc
set tempo
stop
Difficulty
novice
A Day to Remember- Start the Shooting

Tunning: standard.
                                             (0:00-0:04)
|---------------------------------------------------------------------------|
|---------------------------------------------------------------------------|
|---------------------------------------------------------------------------|
|-10----------8-------------------------------------------------------------|
|-10----------8-------------------------------------------------------------|
|-10----------8-------------------------------------------------------------|


                                            "Hey boys, look where we are....."  (0:05-0:23)
|-----------------------------------------------------------------------------|
|-----------------------------------------------------------------------------|
|-----------------------------------------------------------------------------|
|-3-3-333--5-5-555---5-55\7--5-55\7---3-3-333--5-5-555---5-55\7---------------|
|-3-3-333--5-5-555---5-55\7--5-55\7---3-3-333--5-5-555---5-55\7---------------|
|-3-3-333--5-5-555---5-55\7--5-55\7---3-3-333--5-5-555---5-55\7---------------|


                                           "..... about the way that we are...."  (0:23-0:23)
|---------------------------------------------------------------------------|
|---------------------------------------------------------------------------|
|---------------------------------------------------------------------------|
|-3-3-333--5-5-555----------------------------------------------------------|
|-3-3-333--5-5-555----------------------------------------------------------|
|-3-3-333--5-5-555----------------------------------------------------------|


                                               "I notice everything...."  (0:24-0:42)
|---------------------------------------------------------------------------|
|---------------------------------------------------------------------------|
|---------------------------------------------------------------------------|
|-333333333333--7-77-7-77--5-55-5555----------------------------------------|
|-333333333333--7-77-7-77--5-55-5555----------------------------------------|
|-333333333333--7-77-7-77--5-55-5555----------------------------------------|
pm. . . . . . . . . . .           . .         . .

                                             "Watch your step......."    (0:44-1:07)
|---------------------------------------------------------------------------|
|---------------------------------------------------------------------------|
|---------------------------------------------------------------------------|
|-3-3-3-3--7-7-7-7--5-5-5-5--5-5-55555-5-5----------------------------------|
|-3-3-3-3--7-7-7-7--5-5-5-5--5-5-55555-5-5----------------------------------|
|-3-3-3-3--7-7-7-7--5-5-5-5--3-3-33333-3-3----------------------------------|

                        "We're all the same, you think everyone around you cares.....'(1:11-1:27)
|---------------------------------------------------------------------------|
|---------------------------------------------------------------------------|
|---------------------------------------------------------------------------|
|-5-55\7---5-55\7----3-3-333--5-5-555---------------------------------------|
|-5-55\7---5-55\7----3-3-333--5-5-555---------------------------------------|
|-5-55\7---5-55\7----3-3-333--5-5-555---------------------------------------|

                                           "I notice everything...."   (1:27-1:46)
|---------------------------------------------------------------------------|
|---------------------------------------------------------------------------|
|---------------------------------------------------------------------------|
|-333333333333--7-77-7-77--5-55-5555----------------------------------------|
|-333333333333--7-77-7-77--5-55-5555----------------------------------------|
|-333333333333--7-77-7-77--5-55-5555----------------------------------------|
pm. . . . . . . . . . .           . .         . .

                                       "Watch your step......"  (1:47-2:10)

|---------------------------------------------------------------------------|
|---------------------------------------------------------------------------|
|---------------------------------------------------------------------------|
|-3-3-3-3--7-7-7-7--5-5-5-5--5-5-55555-5-5----------------------------------|
|-3-3-3-3--7-7-7-7--5-5-5-5--5-5-55555-5-5----------------------------------|
|-3-3-3-3--7-7-7-7--5-5-5-5--3-3-33333-3-3----------------------------------|

                                               (2:11-2:32)
|---------------------------------------------------------------------------|
|---------------------------------------------------------------------------|
|---------------------------------------------------------------------------|
|-3--3--3----3--3--3-----7--7--7----7--7--7---------------------------------|
|-3--3--3----3--3--3-----7--7--7----7--7--7---------------------------------|
|-3--3--3----3--3--3-----7--7--7----7--7--7---------------------------------|

                                      "Watch your step......"     (3:04-END)

|---------------------------------------------------------------------------|
|---------------------------------------------------------------------------|
|---------------------------------------------------------------------------|
|-3-3-3-3--7-7-7-7--5-5-5-5--5-5-55555-5-5----------------------------------|
|-3-3-3-3--7-7-7-7--5-5-5-5--5-5-55555-5-5----------------------------------|
|-3-3-3-3--7-7-7-7--5-5-5-5--3-3-33333-3-3----------------------------------|
comments
We did not receive enough feedback on this tab! Please rate:
print report bad tab
1 2 3 4 5
2 comments total.
-1 reply
asrbc1elite wrote on April 2 2008, 06:57 pm

yes this tab is probably not very accurate. But it sounded alright. And yes I know ADTR plays in drop c. I tuned this awhile ago when I first started playing. if you want more accurate go to ver 2 of this tab.

0 reply
Guitarman479 wrote on September 3 2009, 08:24 pm

lol epic fail? this is drop c definitely.

I want to post or [tab]
guest
You may want to rate the tab now too:
select rating
Please do not post tabs as comments. Select "correction" instead!