Oops, an error
Loading. Please wait.

The Downfall Of Us All Tab

version 1
26,837 views 3 this week
4 commentsread comments
1 2 3 4 5
x 3
add to favorites
launch autoscroll
font size
0
reset
how to read this tab
guitar tuner
Autoscroll
slow
fast
+/-
esc
set tempo
stop
Help us to improve Ultimate-Guitar.com Take our survey!
×
Author
Drop C - Probably not 100%

Intro


D|---------------------------------------------------------------------|
A|---------------------------------------------------------------------|
F|---------------------------------------------------------------------|
C|-00000000-00-00--0-0-0--00-00--99999999-99-99--55-55-55--------------|
G|-00000000-00-00--0-0-0--00-00--99999999-99-99--55-55-55----4---------|
C|-00000000-00-00--0-0-0--00-00--99999999-99-99--55-55-55-5h7----------|
   ........ .. ..  . . .  .. ..  ........ .. ..  .. .. ..


D|---------------------------------------------------------------------|
A|---------------------------------------------------------------------|
F|---------------------------------------------------------------------|
C|-00000000-00-00--0-0-0--00-00--99999999-99-99--55-55-55--5555--------|
G|-00000000-00-00--0-0-0--00-00--99999999-99-99--55-55-55--5555--------|
C|-00000000-00-00--0-0-0--00-00--99999999-99-99--55-55-55--5555--------|
   ........ .. ..  . . .  .. ..  ........ .. ..  .. .. ..  ....

First Part Of the Verse

()= optional, don't put a lot of emphasis on them if you use them.

D|---------------------------------------------------------------------|
A|-(3)--(12)---(8)-----------------------------------------------------|
F|-(2)--(12)---(7)-----------------------------------------------------|
C|--0----9------5------------------------------------------------------|
G|--0----9------5------------------------------------------------------|
C|--0----9------5------------------------------------------------------|


I think the chorus is somewhat like this

D|------------(x2)--------/--------------------------------------------|
A|-----------------------/---------------------------------------------|
F|(x16)--(x8)--(x8)-----/----(x8)--------------------------------------|
C|-0------9-----5------/-------1----55---------------------------------|
G|-0------9-----5-----/--------1----55---------------------------------|
C|-0------9-----5----/---------1----55---------------------------------|
Suggest correction
Give kudos to tab author, rate the tab!
1 2 3 4 5
comments
print report bad tab
4 comments total. Showing first comments.
+1 reply
yeahrightmilk 102 Feb 05, 2009 08:32 PM

Fill thingy something else in the song lol
D|-----------------------------|--------------------------------------------------------------------|
A|-----------------------------|--------------------------------------------------------------------|
F|-----------------------------|--------------------------------------------------------------------|
C|-----------------------------|-------4h5-----4h5-----7h4-----4h5-----4h5-----4h5-----2h4-----4h5--|
G|-----------------------------|--------------------------------------------------------------------|
C|--0-0-0-0-2-4-4-2-0----------|---0-0-----0-0-----0-0-----0-0-----0-0-----0-0-----0-0-----0-0------|

0 reply
yeahrightmilk 102 Feb 05, 2009 08:33 PM

the first thing is the gutar fill in your last template and the second is after one of the choruses

-1 reply
Scarykids619 130 Mar 31, 2009 05:47 PM

OH MY GOD THIS TAB IS SO PERFECT I CANT BELIEVE HOW YOU COULD DO IT SO WELL THAT IS AMAZING YOU MUST BE A GOD ON GUITAR WHO EVER HAS YOU IN THERE BAD IS SO LUCKY

guest
You may want to rate the tab now too:
select rating
Wanna post a correction for this tab? Suggest correction