Oops, an error
Loading. Please wait.

The Downfall Of Us All Tab

version 1
250,074 views 180 this week
9 commentsread comments
1 2 3 4 5
accurate
x 17
add to favorites
launch autoscroll
font size
0
reset
how to read this tab
guitar tuner
Autoscroll
slow
fast
+/-
esc
set tempo
stop
Help us to improve Ultimate-Guitar.com Take our survey!
×
Contributor
Artist: A Day To Remember
Song:The Downfall Of Us All
Tuning: Dropped C (CGCFAD)

Guitar 1 is on top
Guitar 2 is bottom


D|-----------------|----------------|----------------|----------------|
A|-----------------|----------------|----------------|----------------|
F|-----------------|----------------|----------------|----------------|
C|-----------------|----------------|----------------|----------------|
G|-----------------|0-0-0-0-0-0-0-0-|0-0--*--0-0--*--|----0---0---0---|
C|-----------------|0-0-0-0-0-0-0-0-|0-0--*--0-0--*--|----0---0---0---|

D|-----------------|----------------|----------------|----------------|
A|-----------------|----------------|----------------|----------------|
F|-----------------|----------------|----------------|----------------|
C|-----------------|----------------|----------------|----------------|
G|-----------------|0-0-0-0-0-0-0-0-|0-0--*--0-0--*--|----0---0---0---|
C|-----------------|0-0-0-0-0-0-0-0-|0-0--*--0-0--*--|----0---0---0---|

============================================================================

D|----------------|----------------|----------------|----------------|
A|----------------|----------------|----------------|----------------|
F|----------------|----------------|----------------|----------------|
C|----------------|----------------|----------------|----------------|
G|0-0--*--0-0--*--|9-9-9-9-9-9-9-9-|9-9--*--9-9--*--|5-5--*--5-5--*--|
C|0-0--*--0-0--*--|9-9-9-9-9-9-9-9-|9-9--*--9-9--*--|5-5--*--5-5--*--|

D|----------------|----------------|----------------|----------------|
A|----------------|----------------|----------------|----------------|
F|----------------|----------------|----------------|----------------|
C|----------------|----------------|----------------|----------------|
G|0-0--*--0-0--*--|9-9-9-9-9-9-9-9-|9-9--*--9-9--*--|5-5--*--5-5--*--|
C|0-0--*--0-0--*--|9-9-9-9-9-9-9-9-|9-9--*--9-9--*--|5-5--*--5-5--*--|

============================================================================

D|----------------|----------------|----------------|----------------|
A|----------------|----------------|----------------|----------------|
F|----------------|----------------|----------------|----------------|
C|----------------|----------------|----------------|----------------|
G|5-5--*------4---|0-0-0-0-0-0-0-0-|0-0--*--0-0--*--|----0---0---0---|
C|5-5--*--5-7-----|0-0-0-0-0-0-0-0-|0-0--*--0-0--*--|----0---0---0---|

D|----------------|----------------|----------------|----------------|
A|----------------|----------------|----------------|----------------|
F|----------------|----------------|----------------|----------------|
C|----------------|----------------|----------------|----------------|
G|5-5--*------4---|0-0-0-0-0-0-0-0-|0-0--*--0-0--*--|----0---0---0---|
C|5-5--*--5-7-----|0-0-0-0-0-0-0-0-|0-0--*--0-0--*--|----0---0---0---|

============================================================================

D|----------------|----------------|----------------|----------------|
A|----------------|----------------|----------------|----------------|
F|----------------|----------------|----------------|----------------|
C|----------------|----------------|----------------|----------------|
G|0-0--*--0-0--*--|9-9-9-9-9-9-9-9-|9-9--*--9-9--*--|5-5--*--5-5--*--|
C|0-0--*--0-0--*--|9-9-9-9-9-9-9-9-|9-9--*--9-9--*--|5-5--*--5-5--*--|

D|----------------|----------------|----------------|----------------|
A|----------------|----------------|----------------|----------------|
F|----------------|----------------|----------------|----------------|
C|----------------|----------------|----------------|----------------|
G|0-0--*--0-0--*--|9-9-9-9-9-9-9-9-|9-9--*--9-9--*--|5-5--*--5-5--*--|
C|0-0--*--0-0--*--|9-9-9-9-9-9-9-9-|9-9--*--9-9--*--|5-5--*--5-5--*--|

============================================================================

D|----------------|----------------|----------------|----------------|
A|----------------|----------------|----------------|----------------|
F|----------------|7---------------|----------------|----------------|
C|----------------|----------------|----------------|----------------|
G|5-5--*--5-5-5-5-|5---------------|----------------|----------------|
C|5-5--*--5-5-5-5-|----------------|----------------|----------------|

D|----------------|----------------|----------------|----------------|
A|----------------|----------------|----------------|----------------|
F|----------------|----------------|----------------|----------------|
C|----------------|0---------------|----------------|----------------|
G|5-5--*--5-5-5-5-|0---------------|----------------|----------------|
C|5-5--*--5-5-5-5-|0---------------|----------------|----------------|

============================================================================

D|----------------|-----------------|----------------|----------------|
A|----------------|-----------------|----------------|----------------|
F|----------------|11---------------|----------------|7---------------|
C|----------------|-----------------|----------------|----------------|
G|----------------|-9---------------|----------------|5---------------|
C|----------------|-----------------|----------------|----------------|

D|----------------|-----------------|----------------|----------------|
A|----------------|-----------------|----------------|----------------|
F|----------------|-----------------|----------------|----------------|
C|----------------|-9---------------|----------------|5---------------|
G|----------------|-9---------------|----------------|5---------------|
C|----------------|-9---------------|----------------|5---------------|

============================================================================

D|----------------|-----------------|----------------|----------------|
A|----------------|-----------------|----------------|----------------|
F|----------------|11---------------|----------------|----------------|
C|----------------|-----------------|----------------|----------------|
G|----------------|-9---------------|----------------|----------------|
C|----------------|-----------------|----------------|----------------|

D|----------------|-----------------|----------------|----------------|
A|----------------|-----------------|----------------|----------------|
F|----------------|-----------------|----------------|----------------|
C|----------------|-0---------------|----------------|----------------|
G|----------------|-0---------------|----------------|----------------|
C|----------------|-0---------------|----------------|----------------|

============================================================================

D|----------------|-----------------|----------------|----------------|
A|----------------|-----------------|----------------|----------------|
F|----------------|11---------------|----------------|7---------------|
C|----------------|-----------------|----------------|----------------|
G|----------------|-9---------------|----------------|5---------------|
C|----------------|-----------------|----------------|----------------|

D|----------------|-----------------|----------------|----------------|
A|----------------|-----------------|----------------|----------------|
F|----------------|-----------------|----------------|----------------|
C|----------------|-9---------------|----------------|5---------------|
G|----------------|-9---------------|----------------|5---------------|
C|----------------|-9---------------|----------------|5---------------|

============================================================================

Chorus

D|----------------|----------------|----------------|----------------|
A|----------------|----------------|----------------|----------------|
F|----------------|----------------|----------------|----------------|
C|----------------|9---9---9---9---|9---9---9---8---|x---8---8---8---|
G|----------------|9---9---9---9---|9---9---9---9---|x---9---9---9---|
C|----------------|9---9---9---9---|9---9---9---8---|x---8---8---8---|

D|----------------|----------------|----------------|----------------|
A|----------------|----------------|----------------|----------------|
F|----------------|----------------|----------------|----------------|
C|----------------|9---9---9---9---|9---9---9---8---|x---8---8---8---|
G|----------------|9---9---9---9---|9---9---9---9---|x---9---9---9---|
C|----------------|9---9---9---9---|9---9---9---8---|x---8---8---8---|

============================================================================

D|----------------|----------------|----------------|----------------|
A|----------------|----------------|----------------|----------------|
F|----------------|----------------|----------------|----------------|
C|8---8---8---8---|5---5---5---5---|5---5---5---5---|----------------|
G|9---9---9---9---|5---5---5---5---|5---5---5---5---|----------------|
C|8---8---8---8---|5---5---5---5---|5---5---5---5---|0---0---2---4---|

D|----------------|----------------|----------------|----------------|
A|----------------|----------------|----------------|----------------|
F|----------------|----------------|----------------|----------------|
C|8---8---8---8---|5---5---5---5---|5---5---5---5---|----------------|
G|9---9---9---9---|5---5---5---5---|5---5---5---5---|----------------|
C|8---8---8---8---|5---5---5---5---|5---5---5---5---|0---0---2---4---|

============================================================================

D|----------------|----------------|----------------|----------------|
A|----------------|----------------|----------------|----------------|
F|----------------|7---7---7---7---|7---7---7---6---|x---------------|
C|----------------|----------------|----------------|----------------|
G|----------------|5---5---5---5---|5---5---5---4---|x---5---5---5---|
C|2---2---4---0---|----------------|----------------|----5---5---5---|

D|----------------|----------------|----------------|----------------|
A|----------------|----------------|----------------|----------------|
F|----------------|----------------|----------------|----------------|
C|----------------|9---9---9---9---|9---9---9---8---|x---------------|
G|----------------|9---9---9---9---|9---9---9---9---|x---5---5---5---|
C|2---2---4---0---|9---9---9---9---|9---9---9---8---|x---5---5---5---|

============================================================================
                    From here 2 times
D|----------------|----------------|----------------|----------------|
A|----------------|----------------|----------------|----------------|
F|----------------|----------------|----------------|----------------|
C|----------------|0---0---0---2---|2---0---0---5---|5---0---0---7---|
G|5---5---5---5---|0---0---0---2---|2---0---0---5---|5---0---0---7---|
C|5---5---5---5---|0---0---0---2---|2---0---0---5---|5---0---0---7---|

D|----------------|----------------|----------------|----------------|
A|----------------|----------------|----------------|----------------|
F|----------------|----------------|----------------|----------------|
C|----------------|0---0---0---2---|2---0---0---5---|5---0---0---7---|
G|5---5---5---5---|0---0---0---2---|2---0---0---5---|5---0---0---7---|
C|5---5---5---5---|0---0---0---2---|2---0---0---5---|5---0---0---7---|

============================================================================

D|----------------|----------------|----------------|----------------|
A|----------------|----------------|----------------|----------------|
F|----------------|----------------|----------------|----------------|
C|7---7---7---7---|0---0---0---2---|2---2---2---2---|5---5---5---5---|
G|7---7---7---7---|0---0---0---2---|2---2---2---2---|5---5---5---5---|
C|7---7---7---7---|0---0---0---2---|2---2---2---2---|5---5---5---5---|

D|----------------|----------------|----------------|----------------|
A|----------------|----------------|----------------|----------------|
F|----------------|----------------|----------------|----------------|
C|7---7---7---7---|0---0---0---2---|2---2---2---2---|5---5---5---5---|
G|7---7---7---7---|0---0---0---2---|2---2---2---2---|5---5---5---5---|
C|7---7---7---7---|0---0---0---2---|2---2---2---2---|5---5---5---5---|

============================================================================

D|----------------|----------------|----------------|----------------|
A|----------------|----------------|----------------|----------------|
F|----------------|----------------|----------------|----------------|
C|5---5---5---5---|0---0---0---2---|2---0---0---5---|5---0---0---7---|
G|5---5---5---5---|0---0---0---2---|2---0---0---5---|5---0---0---7---|
C|5---5---5---5---|0---0---0---2---|2---0---0---5---|5---0---0---7---|

D|----------------|
A|----------------|
F|----------------|
C|5---5---5---5---|
G|5---5---5---5---|
C|5---5---5---5---|

============================================================================

End here
D|----------------|----------------|----------------|----------------|
A|----------------|----------------|----------------|----------------|
F|----------------|----------------|----------------|----------------|
C|5---5---5---5---|2---2---2---2---|2---2---2---2---|5---5---*-------|
G|5---5---5---5---|2---2---2---2---|2---2---2---2---|5---5---*-------|
C|5---5---5---5---|2---2---2---2---|2---2---2---2---|5---5---*-------|

D|----------------|----------------|----------------|----------------|
A|----------------|----------------|----------------|----------------|
F|----------------|----------------|----------------|----------------|
C|5---5---5---5---|2---2---2---2---|2---2---2---2---|5---5---*-------|
G|5---5---5---5---|2---2---2---2---|2---2---2---2---|5---5---*-------|
C|5---5---5---5---|2---2---2---2---|2---2---2---2---|5---5---*-------|

============================================================================

Play Intro Again

============================================================================

D|----------------|----------------|----------------|----------------|
A|----------------|----------------|----------------|----------------|
F|----------------|----------------|----------------|----------------|
C|----------------|----------------|----------------|----------------|
G|----------------|0-0-0---*-------|----------------|0-0-0---*-------|
C|----------------|0-0-0---*-------|----------------|0-0-0---*-------|

D|----------------|----------------|----------------|----------------|
A|----------------|----------------|----------------|----------------|
F|----------------|----------------|----------------|----------------|
C|----------------|----------------|----------------|----------------|
G|----------------|0-0-0---*-------|----------------|0-0-0---*-------|
C|----------------|0-0-0---*-------|----------------|0-0-0---*-------|

============================================================================

D|----------------|----------------|----------------|----------------|
A|----------------|----------------|----------------|----------------|
F|----------------|----------------|----------------|----------------|
C|----------------|----------------|----------------|----------------|
G|----------------|9-9-9---*-------|9-9-9---*-------|5-5-5---*-------|
C|----------------|9-9-9---*-------|9-9-9---*-------|5-5-5---*-------|

D|----------------|----------------|----------------|----------------|
A|----------------|----------------|----------------|----------------|
F|----------------|----------------|----------------|----------------|
C|----------------|----------------|----------------|----------------|
G|----------------|9-9-9---*-------|9-9-9---*-------|5-5-5---*-------|
C|----------------|9-9-9---*-------|9-9-9---*-------|5-5-5---*-------|

============================================================================

D|------------------------|
A|------------------------|
F|------------------------|
C|------------------------|
G|5-5-5---*---------------|
C|5-5-5---*---------------|

D|------------------------|
A|------------------------|
F|------------------------|
C|--------5---------------|
G|5-5-5---5---------------|
C|5-5-5---5---------------|

============================================================================
Play Chorus Again
============================================================================

D|----------------|----------------|
A|----------------|----------------|
F|----------------|----------------|
C|0---0---0---0---|0---5---4-------|
G|0---0---0---0---|0---------------|
C|0---0---0---0---|0---------------|

D|----------------|----------------|
A|----------------|----------------|
F|----------------|----------------|
C|0---0---0---0---|0---------------|
G|0---0---0---0---|0---7---9-------|
C|0---0---0---0---|0---------------|

============================================================================

D|----------------|----------------|----------------|----------------|
A|----------------|----------------|----------------|----------------|
F|----------------|----------------|----------------|----------------|
C|----0---0---0---|0---5---4-------|5---5---5---5---|5---5---4-------|
G|----0---0---0---|0---------------|5---5---5---5---|5---------------|
C|----0---0---0---|0---------------|5---5---5---5---|5---------------|

D|----------------|----------------|----------------|----------------|
A|----------------|----------------|----------------|----------------|
F|----------------|----------------|----------------|----------------|
C|----0---0---0---|0---------------|5---5---5---5---|5---------------|
G|----0---0---0---|0---7---9-------|5---5---5---5---|5---7---9-------|
C|----0---0---0---|0---------------|5---5---5---5---|5---------------|

============================================================================

D|----------------|----------------|----------------|----------------|
A|----------------|----------------|----------------|----------------|
F|----------------|----------------|----------------|----------------|
C|----7---7---7---|7---5---5---7---|0---0---0---0---|0---5---4-------|
G|----7---7---7---|7---------------|0---0---0---0---|0---------------|
C|----7---7---7---|7---------------|0---0---0---0---|0---------------|

D|----------------|----------------|----------------|----------------|
A|----------------|----------------|----------------|----------------|
F|----------------|----------------|----------------|----------------|
C|----7---7---7---|7---------------|0---0---0---0---|0---------------|
G|----7---7---7---|7---7---7---9---|0---0---0---0---|0---7---9-------|
C|----7---7---7---|7---------------|0---0---0---0---|0---------------|

============================================================================

D|----------------|----------------|----------------|----------------|
A|----------------|----------------|----------------|----------------|
F|----------------|----------------|----------------|----------------|
C|----0---0---0---|0---5---4-------|5---5---5---5---|5---5---4-------|
G|----0---0---0---|0---------------|5---5---5---5---|5---------------|
C|----0---0---0---|0---------------|5---5---5---5---|5---------------|

D|----------------|----------------|----------------|----------------|
A|----------------|----------------|----------------|----------------|
F|----------------|----------------|----------------|----------------|
C|----0---0---0---|0---------------|5---5---5---5---|5---------------|
G|----0---0---0---|0---7---9-------|5---5---5---5---|5---7---9-------|
C|----0---0---0---|0---------------|5---5---5---5---|5---------------|

============================================================================

D|----------------|----------------|----------------|----------------|
A|----------------|----------------|----------------|----------------|
F|----------------|----------------|----------------|----------------|
C|----7---7---7---|7---5---5---7---|----------------|----5---4-------|
G|----7---7---7---|7---------------|0-0-0-0-0-0-0-0-|0---------------|
C|----7---7---7---|7---------------|0-0-0-0-0-0-0-0-|0---------------|

D|----------------|----------------|----------------|----------------|
A|----------------|----------------|----------------|----------------|
F|----------------|----------------|----------------|----------------|
C|----7---7---7---|7---------------|----------------|----------------|
G|----7---7---7---|7---7---7---9---|0-0-0-0-0-0-0-0-|0---7---9-------|
C|----7---7---7---|7---------------|0-0-0-0-0-0-0-0-|0---------------|

============================================================================

D|----------------|----------------|----------------|----------------|
A|----------------|----------------|----------------|----------------|
F|----------------|----------------|----------------|----------------|
C|----------------|----5---4-------|----------------|----5---4-------|
G|----0-0-0-0-0-0-|0---------------|5-5-5-5-5-5-5-5-|5---------------|
C|----0-0-0-0-0-0-|0---------------|5-5-5-5-5-5-5-5-|5---------------|

D|----------------|----------------|----------------|----------------|
A|----------------|----------------|----------------|----------------|
F|----------------|----------------|----------------|----------------|
C|----------------|----------------|----------------|----------------|
G|----0-0-0-0-0-0-|0---7---9-------|5-5-5-5-5-5-5-5-|5---7---9-------|
C|----0-0-0-0-0-0-|0---------------|5-5-5-5-5-5-5-5-|5---------------|

============================================================================

D|----------------|----------------|----------------|----------------|
A|----------------|----------------|----------------|----------------|
F|----------------|----------------|----------------|----------------|
C|----------------|----------------|----------------|----5---4-------|
G|7-7--*--7-7--*--|----7---7-7--*--|0-0-0-0-0-0-0-0-|0---------------|
C|7-7--*--7-7--*--|----7---7-7--*--|0-0-0-0-0-0-0-0-|0---------------|

D|----------------|----------------|----------------|----------------|
A|----------------|----------------|----------------|----------------|
F|----------------|----------------|----------------|----------------|
C|----------------|----------------|----------------|----------------|
G|7-7--*--7-7--*--|----7---7-7--*--|0-0-0-0-0-0-0-0-|0---7---9-------|
C|7-7--*--7-7--*--|----7---7-7--*--|0-0-0-0-0-0-0-0-|0---------------|

============================================================================

D|----------------|----------------|----------------|----------------|
A|----------------|----------------|----------------|----------------|
F|----------------|----------------|----------------|----------------|
C|----------------|----5---4-------|----------------|----5---4-------|
G|----0-0-0-0-0-0-|0---------------|5-5-5-5-5-5-5-5-|5---------------|
C|----0-0-0-0-0-0-|0---------------|5-5-5-5-5-5-5-5-|5---------------|

D|----------------|----------------|----------------|----------------|
A|----------------|----------------|----------------|----------------|
F|----------------|----------------|----------------|----------------|
C|----------------|----------------|----------------|----------------|
G|----0-0-0-0-0-0-|0---7---9-------|5-5-5-5-5-5-5-5-|5---7---9-------|
C|----0-0-0-0-0-0-|0---------------|5-5-5-5-5-5-5-5-|5---------------|

============================================================================

D|----------------|----------------|----------------|----------------|
A|----------------|----------------|----------------|----------------|
F|----------------|----------------|----------------|----------------|
C|----------------|----------------|----------------|----------------|
G|7-7--*--7-7--*--|----7---7-7--*--|----------------|----------------|
C|7-7--*--7-7--*--|----7---7-7--*--|----------------|----------------|

D|----------------|----------------|----------------|----------------|
A|----------------|----------------|----------------|----------------|
F|----------------|----------------|----------------|----------------|
C|----------------|----------------|----------------|----------------|
G|7-7--*--7-7--*--|----7---7-7--*--|----------------|----------------|
C|7-7--*--7-7--*--|----7---7-7--*--|0---0---0---2---|2---0---0---5---|

============================================================================

D|----------------|----------------|----------------|----------------|
A|----------------|----------------|----------------|----------------|
F|----------------|----------------|----------------|----------------|
C|----------------|----------------|----------------|----------------|
G|----------------|----------------|----------------|----------------|
C|----------------|----------------|----------------|----------------|

D|----------------|----------------|----------------|----------------|
A|----------------|----------------|----------------|----------------|
F|----------------|----------------|----------------|----------------|
C|----------------|----------------|----------------|----------------|
G|----------------|----------------|----------------|----------------|
C|5---0---0---7---|7---7---7---7---|0---0---0---2---|2---2---2---2---|

============================================================================

D|----------------|----------------|
A|----------------|----------------|
F|----------------|----------------|
C|----------------|----------------|
G|----------------|----------------|
C|----------------|----------------|

D|----------------|----------------|
A|----------------|----------------|
F|----------------|----------------|
C|----------------|----------------|
G|----------------|----------------|
C|5---5---5---5---|5---5---5---5---|

============================================================================
Play Chorus Again
============================================================================


[Outro]

D|----------------|----------------|----------------|----------------|
A|----------------|----------------|----------------|----------------|
F|----------------|----------------|----------------|----------------|
C|5---------------|----------------|----------------|----------------|
G|5---------------|----------------|0-0-0-0-0-0-0-0-|0-0--*--0-0--*--|
C|5---------------|----------------|0-0-0-0-0-0-0-0-|0-0--*--0-0--*--|

D|----------------|----------------|----------------|----------------|
A|----------------|----------------|----------------|----------------|
F|----------------|----------------|----------------|----------------|
C|5---------------|----------------|----------------|----------------|
G|5---------------|----------------|0-0-0-0-0-0-0-0-|0-0--*--0-0--*--|
C|5---------------|----------------|0-0-0-0-0-0-0-0-|0-0--*--0-0--*--|

============================================================================

D|----------------|----------------|----------------|----------------|
A|----------------|----------------|----------------|----------------|
F|----------------|----------------|----------------|----------------|
C|----------------|----------------|----------------|----------------|
G|----0---0---0---|0-0--*--0-0--*--|0-0-0-0-0-0-0-0-|0-0--*--0-0--*--|
C|----0---0---0---|0-0--*--0-0--*--|0-0-0-0-0-0-0-0-|0-0--*--0-0--*--|

D|----------------|----------------|----------------|----------------|
A|----------------|----------------|----------------|----------------|
F|----------------|----------------|----------------|----------------|
C|----------------|----------------|----------------|----------------|
G|----0---0---0---|0-0--*--0-0--*--|0-0-0-0-0-0-0-0-|0-0--*--0-0--*--|
C|----0---0---0---|0-0--*--0-0--*--|0-0-0-0-0-0-0-0-|0-0--*--0-0--*--|

============================================================================

D|----------------|----------------|----------------|----------------|
A|----------------|----------------|----------------|----------------|
F|----------------|----------------|----------------|----------------|
C|----------------|----------------|----------------|----------------|
G|0-0--*--0-0--*--|0---0-0---0-0---|0-0-0-0-0-0-0-0-|0-0--*--0-0--*--|
C|0-0--*--0-0--*--|0---0-0---0-0---|0-0-0-0-0-0-0-0-|0-0--*--0-0--*--|

D|----------------|----------------|----------------|----------------|
A|----------------|----------------|----------------|----------------|
F|----------------|----------------|----------------|----------------|
C|----------------|----------------|----------------|----------------|
G|0-0--*--0-0--*--|0---0-0---0-0---|0-0-0-0-0-0-0-0-|0-0--*--0-0--*--|
C|0-0--*--0-0--*--|0---0-0---0-0---|0-0-0-0-0-0-0-0-|0-0--*--0-0--*--|

============================================================================

D|----------------|----------------|----------------|----------------|
A|----------------|----------------|----------------|----------------|
F|----------------|----------------|----------------|----------------|
C|----------------|----------------|----------------|----------------|
G|----0---0---0---|0-0--*--0-0--*--|0-0-0-0-0-0-0-0-|0-0--*--0-0--*--|
C|----0---0---0---|0-0--*--0-0--*--|0-0-0-0-0-0-0-0-|0-0--*--0-0--*--|

D|----------------|----------------|----------------|----------------|
A|----------------|----------------|----------------|----------------|
F|----------------|----------------|----------------|----------------|
C|----------------|----------------|----------------|----------------|
G|----0---0---0---|0-0--*--0-0--*--|0-0-0-0-0-0-0-0-|0-0--*--0-0--*--|
C|----0---0---0---|0-0--*--0-0--*--|0-0-0-0-0-0-0-0-|0-0--*--0-0--*--|

============================================================================

D|----------------|----------------|----------------|
A|----------------|----------------|----------------|
F|----------------|----------------|----------------|
C|----------------|----------------|----------------|
G|0-0--*--0-0--*--|0---0-0---0-0---|*---------------|
C|0-0--*--0-0--*--|0---0-0---0-0---|*---------------|

D|----------------|----------------|----------------|
A|----------------|----------------|----------------|
F|----------------|----------------|----------------|
C|----------------|----------------|----------------|
G|0-0--*--0-0--*--|0---0-0---0-0---|*---------------|
C|0-0--*--0-0--*--|0---0-0---0-0---|*---------------|
Suggest correction What's this?
You can suggest a correction to this tab. Community and Mods will review your correction and vote to approve or reject it.
comments
print report bad tab
9 comments total. Showing first comments. show 1 bad comment
+6 reply
samshreds 34 wrote on April 1 2009, 06:27 pm

nice comment how's that have to do with the tab??

+5 reply
MusicMan24 3,308 wrote on May 1 2009, 04:13 pm

What the **** at 1st comment???!!!

I want to post or [tab]
guest
You may want to rate the tab now too:
select rating
Please do not post tabs as comments. Select "correction" instead!