Oops, an error
Loading. Please wait.

The Downfall Of Us All Bass Tab

version 4
1,473 views 4 this week
no commentswrite comment
1 2 3 4 5
please rate
add to favorites
launch autoscroll
font size
0
reset
guitar tuner
Tab Pro tools
  • play this tab
  • loop segment
  • change instrument
  • show fretboard
  • metronome
×
Best way to learn
"The Downfall Of Us All"
Autoscroll
slow
fast
+/-
esc
set tempo
stop
Contributor
Difficulty
novice
5 stringed version

INTRO:
G|---------------------------------------------------|
D|---------------------------------------------------|x2                     
A|---------------------------------------------------|   
E|--------------------------55555555-55-55-----------|                        
B|11111111-11-11—111-11-11-----------------66-66-66--|  


                     |--------| 
(2nd time, end with) |--------|
                     |--------|
                     |-66660~-|

VERSE:
G|----------------------------------------------|
D|----------------------------------------------|
A|----------------------------------------------|
E|--5~-----------------------5~-----------------|
B|---------6~-------1~---------------6~---------|

PRE-CHORUS:
G|-------------------------------------------------------------|
D|-------------------------------------------------------------|
A|------77-------------------------------------77--------------|
E|-5555----------888\--------------------55555-----------------|
B|-----------6666-----11111111113333333------------6-66666666--|

CHORUS:
G|-------------------------------------|
D|-------------------------------------|x2                       
A|-------------------------------------|  
E|----------11--333--------------------|                        
B|-111113311--11---—111113333/6666666--|                      
 
                      |------------|                 
                      |------------|
(2nd time, end with)  |------------|
                      |-3333333/66-| 

INTRO

VERSE 2:
G|----------------------------------------------|
D|----------------------------------------------|
A|----------------------------------------------|
E|--5~-----------------------555-555------------|
B|---------6~-----11---111-------------666-666--|

PRE-CHORUS

CHORUS

BRIDGE

G|--------------------------------------------|
D|--------------------------------------------|x2
A|-------32~-------32~--------23~-------323---|
E|----------------------11111------3333-------|
B|-11111------1111----------------------------|

G|--------------------------|
D|--------------------------|
A|--------------------------|
E|--------------------------|
B|-11111-11111-66666-88-888-|


BREAK

CHORUS

OUTRO:
G|--------------------------------------------------------|
D|--------------------------------------------------------|x2
A|--------------------------------------------------------|
E|--------------------------------------------------------|
B|-1111111-11-11-111-11-11---11111111-11-11-11-11-1-11-11-|
comments
We did not receive enough feedback on this tab! Please rate:
print report bad tab
1 2 3 4 5
I want to post or [tab]
guest
You may want to rate the tab now too:
select rating
Please do not post tabs as comments. Select "correction" instead!