Oops, an error
Loading. Please wait.

The Downfall Of Us All Tab

version 4
255,621 views 60 this week
24 commentsread comments
1 2 3 4 5
x 92
add to favorites
launch autoscroll
font size
0
reset
how to read this tab
guitar tuner
Autoscroll
slow
fast
+/-
esc
set tempo
stop
Help us to improve Ultimate-Guitar.com Take our survey!
×
Tuning
C G C F A D
Tuning: Drop C [CGCFAD]


[Intro]

D|-------------------------------------------------------------------------|
A|-------------------------------------------------------------------------|
F|-------------------------------------------------------------------------|
C|-------------------------------------------------------------------------|
G|-00000000-00-00--0-0-0-00-00--99999999-99-99-55-55-55----4---------------|
C|-00000000-00-00--0-0-0-00-00--99999999-99-99-55-55-55-5h7----------------|

D|-------------------------------------------------------------------------|
A|-------------------------------------------------------------------------|
F|-------------------------------------------------------------------------|
C|-------------------------------------------------------------------------|
G|-00000000-00-00--0-0-0-00-00--99999999-99-99-55-55-55-5555---------------|
C|-00000000-00-00--0-0-0-00-00--99999999-99-99-55-55-55-5555---------------|


[Verse]

D|---------------|
A|---------------|
F|---------------|
C|---0---9---5---| [x2]
G|---0---9---5---|
C|---0---9---5---|


 [Pre-Chorus]

D|-------------------------------------------------------------------------|
A|-------------------------------------------------------------------------|
F|-------------------------------------------------------------------------|
C|-99999999--8888888-55555555-------------------99999998--5555-------------|
G|-99999999--8888888-55555555-------------------99999998--5555-------------|
C|-99999999--8888888-55555555--0-0-2-4-2-2-0-0--99999998--5555-------------|


[Chorus]

D|-------------------------------------------|
A|-------------------------------------------|
F|-------------------------------------------|
C|-000-22-00-55-00-77777-000-2222-555555555--| [x2]
G|-000-22-00-55-00-77777-000-2222-555555555--|
C|-000-22-00-55-00-77777-000-2222-555555555--|

 Then:
D|-------------|
A|-------------|
F|-------------|
C|-22222222-55-|
G|-22222222-55-|
C|-22222222-55-|

And back to intro part...

D|-------------------------------------------------------------------------|
A|-------------------------------------------------------------------------|
F|-------------------------------------------------------------------------|
C|-------------------------------------------------------------------------|
G|-00000000-00-00--0-0-0-00-00--99999999-99-99-55-55-55----4---------------|
C|-00000000-00-00--0-0-0-00-00--99999999-99-99-55-55-55-5h7----------------|

D|-----------------------------------------------------------------|
A|-----------------------------------------------------------------|
F|-----------------------------------------------------------------|
C|-----------------------------------------------------------------|
G|-00000000-00-00--0-0-0-00-00--99999999-99-99-55-55---------------|
C|-00000000-00-00--0-0-0-00-00--99999999-99-99-55-55--[pickslide]--|


[Breakdown 1]

 Guitar 1
D|---------------------------------------------------------|
A|---------------------------------------------------------|
F|---------------------------------------------------------|
C|-00-4h5-00-5p4-00-7p4-00-5p4-00-4h5-00-5p4-00-2h4-00-4p2-|
G|---------------------------------------------------------|
C|---------------------------------------------------------|

D|---------------------------------------------------------|
A|---------------------------------------------------------|
F|---------------------------------------------------------|
C|-00-4h5-00-5p4-00-7p4-00-5p4-00-4h5-00-5p4-00-2h4-4------|
G|---------------------------------------------------------|
C|---------------------------------------------------------|

 Guitar 2
D|--------------------------------------|
A|--------------------------------------|
F|--------------------------------------|
C|-000------000------999--999--555--555-|
G|-000------000------999--999--555--555-|
C|-000------000------999--999--555--555-|

[Sorry guys, I haven't gotten the whole second breakdown right yet, as soon
as I do I'll have it up, I have the second guitar though.]


[Breakdown 2]

 Guitar 2
D|----------------------------------------------------------------|
A|----------------------------------------------------------------|
F|----------------------------------------------------------------| [x2]
C|-0-0-0-0-------0-0-0-------5-5-5-5-------7-7-7------------------|
G|-0-0-0-0--4-5--0-0-0--4-5--5-5-5-5--4-5--7-7-7--4-4h5-----------|
C|-0-0-0-0-------0-0-0-------5-5-5-5-------7-7-7------------------|

D|----------------------------------------------------|
A|----------------------------------------------------|
F|----------------------------------------------------| [x2]
C|----------------------------------------------------|
G|-----------4-5---------4-5-----------4-5------------|
C|-000000000-----0000000-----555555555-----77-77-7-77-|

D|-------------------------------------------|
A|-------------------------------------------|
F|-------------------------------------------|
C|-------------------------------------------|
G|-------------------------------------------|
C|-000-22-00-55-00-77777--000-2222-555555555-|


[Outro]

D|-----------------------------------------------------------|
A|-----------------------------------------------------------|
F|-----------------------------------------------------------|
C|-----------------------------------------------------------|
G|-----------------------------------------------------------|
C|-00000000-00-00--0-0-0-00-00--00000000-00-00-00-00-0-00-00-|


And here's the order for you:


[Intro]
[Verse]
[Pre-Chorus]
[Chorus]
[Intro Part]
[Verse]
[Breakdown 1]
[Pre-Chorus]
[Chorus]
[Breakdown 2]
[Chorus]
[Outro]

This sounds right to me, they're not all exactly the same every time,
but if you listen to the song you can hear all the small changes,
I have all of the right parts down. Happy playing!



************************************

| h  Hammer-on
| p  Pull-off

************************************
Suggest correction
comments
print report bad tab
24 comments total. Showing first comments.
0 reply
randomhero93 80 Sep 02, 2009 05:19 PM

in the prechorus's where it goes from the A5 to the G#5, i think it sounds closer as:

C|8

0 reply
randomhero93 80 Sep 02, 2009 05:21 PM

C|8

0 reply
randomhero93 80 Sep 02, 2009 05:22 PM

is it just me or are these comments screwing with me? i keep meaning to write C|8, G|9, and C|8

guest
You may want to rate the tab now too:
select rating
Wanna post a correction for this tab? Suggest correction