Oops, an error
Loading. Please wait.

The Downfall Of Us All Bass Tab

version 5
6,219 views 3 this week
no commentswrite comment
1 2 3 4 5
accurate
x 3
add to favorites
launch autoscroll
font size
0
reset
guitar tuner
Autoscroll
slow
fast
+/-
esc
set tempo
stop
Help us to improve Ultimate-Guitar.com Take our survey!
×
Author
Difficulty
Tuning
novice
C G C F A D
This was ripped directly from my powertab. Enjoy!

#----------------------------------PLEASE NOTE---------------------------------#
#This file is the author's own work and represents their interpretation of the #
#song. You may only use this file for private study, scholarship, or research. #
#------------------------------------------------------------------------------#

THE DOWNFALL OF US ALL (Bassline)
As recorded by A Day To Remember
(From the 2009 Album HOMESICK)


	

Words and Music by A Day To Remember,

Gtr I (C G C F) - 'Bass'

 Chant
  Popcore Q=130
 4/4
  Gtr I
  Wx4
|--------||
|--------||
|--------||
|--------||


 "Let's go!"
  S S S S S S S S S S E S S E   E E E E S S E S S E
|-----------------------------|---------------------|
|-----------------------------|---------------------|
|-----------------------------|---------------------|
|-0-0-0-0-0-0-0-0-0-0---0-0---|---0-0-0-0-0---0-0---|


  S S S S S S S S S S E S S E   S S E S S E S S Q.
|-----------------------------|----------------------|
|-----------------------------|----------------------|
|-----------------------------|----------------------|
|-9-9-9-9-9-9-9-9-9-9---9-9---|-5-5---5-5---5-5------|


  S S S S S S S S S S E S S E   E E E E S S E S S E
|-----------------------------|---------------------|
|-----------------------------|---------------------|
|-----------------------------|---------------------|
|-0-0-0-0-0-0-0-0-0-0---0-0---|---0-0-0-0-0---0-0---|


  S S S S S S S S S S E S S E   S S E S S E S S E S S S S
|-----------------------------|---------------------------||
|-----------------------------|---------------------------||
|-----------------------------|---------------------------||
|-9-9-9-9-9-9-9-9-9-9---9-9---|-5-5---5-5---5-5---5-5-5-5-||


 "It's not easy making a.."
  Gtr I
  W          W          W          W
|----------|----------|----------|------|
|----------|----------|----------|------|
|----------|----------|----------|------|
|-0--------|-0--------|-9--------|-5----|


  W          +W           W          W
|----------|------------|----------|------||
|----------|------------|----------|------||
|----------|------------|----------|------||
|-0--------|-(0)--------|-9--------|-5----||


 "Oooh!"
  E E E E E E E +E     E E E E E E E E   E E E E E E E E
|--------------------|-----------------|-----------------|
|--------------------|-----------------|-----------------|
|--------------------|-----------------|-----------------|
|-9-9-9-9-9-9-9-(9)\-|---8-8-8-8-8-8-8-|-5-5-5-5-5-5-5-5-|


  E E E E E E E E   E E E E E E E E   E E E E E E E E
|-----------------|-----------------|-----------------||
|-----------------|-----------------|-----------------||
|-----------------|-----------------|-----------------||
|-0-0-2-4-2-2-0-0-|-9-9-9-9-9-9-9-8-|---5-5-5-5-5-5-5-||


   "You'll find me in the.."
    E E E E E E E E   E E E E E E E E   E E E E E E E E   E E E E E E E E
||------------------|-----------------|-----------------|------------------||
||o-----------------|-----------------|-----------------|-----------------o||
||o-----------------|-----------------|-----------------|-----------------o||
||--0-0-0-2-2-0-0-5-|-5-0-0-7-7-7-7-7-|-0-0-0-2-2-2-2-5-|-5-5-5-5-5-5-5-5--||


  E E E E E E E E   E E H.
|-----------------|-----------||
|-----------------|-----------||
|-----------------|-----------||
|-2-2-2-2-2-2-2-2-|-5-5-------||


 "..all."
  S S S S S S S S S S E S S E   E E E E S S E S S E
|-----------------------------|---------------------|
|-----------------------------|---------------------|
|-----------------------------|---------------------|
|-0-0-0-0-0-0-0-0-0-0---0-0---|---0-0-0-0-0---0-0---|


  S S S S S S S S S S E S S E   S S E S S E S S Q.
|-----------------------------|----------------------|
|-----------------------------|----------------------|
|-----------------------------|----------------------|
|-9-9-9-9-9-9-9-9-9-9---9-9---|-5-5---5-5---5-5------|


  S S S S S S S S S S E S S E   E E E E S S E S S E
|-----------------------------|---------------------|
|-----------------------------|---------------------|
|-----------------------------|---------------------|
|-0-0-0-0-0-0-0-0-0-0---0-0---|---0-0-0-0-0---0-0---|


  S S S S S S S S S S E S S E   S S E S S E  H
|-----------------------------|--------------------||
|-----------------------------|--------------------||
|-----------------------------|--------------------||
|-9-9-9-9-9-9-9-9-9-9---9-9---|-5-5---5-5---12\----||


 "I'm gonna need you to.."
  W          +W           W          W
|----------|------------|----------|------||
|----------|------------|----------|------||
|----------|------------|----------|------||
|-0--------|-(0)--------|-9--------|-5----||


 "Now go tell them we.."
  S S S H.      S   S S S H.      S
|-----------------|-----------------|
|-----------------|-----------------|
|-----------------|-----------------|
|-0-0-0-----------|-0-0-0-----------|


  S S S S Q  S S S S Q    S S S S Q  S S S S Q
|-----------------------|------------------------||
|-----------------------|------------------------||
|-----------------------|------------------------||
|-9-9-9------9-9-9------|-5-5-5------5-5-5---9\--||


 "Oooh!"
  E E E E E E E E   E E E E E E E E   E E E E E E E E
|-----------------|-----------------|-----------------|
|-----------------|-----------------|-----------------|
|-----------------|-----------------|-----------------|
|-9-9-9-9-9-9-9-8-|---8-8-8-8-8-8-8-|-5-5-5-5-5-5-5-5-|


  E E E E E E E E   E E E E E E E E   E H..
|-----------------|-----------------|----------||
|-----------------|-----------------|----------||
|-----------------|-----------------|----------||
|-0-0-2-4-2-2-0-0-|-9-9---9-9-9---9-|-8--------||


   "You'll find me in the.."
    E E E E E E E E   E E E E E E E E   E E E E E E E E   E E E E E E E E
||------------------|-----------------|-----------------|------------------||
||o-----------------|-----------------|-----------------|-----------------o||
||o-----------------|-----------------|-----------------|-----------------o||
||--0-0-0-2-2-0-0-5-|-5-0-0-7-7-7-7-7-|-0-0-0-2-2-2-2-5-|-5-5-5-5-5-5-5-5--||


  E E E E E E E E   E E E E E E E E
|-----------------|-----------------||
|-----------------|-----------------||
|-----------------|-----------------||
|-2-2-2-2-2-2-2-2-|-5-5-5-5-5-5-5-5-||


   Bridge
    E E E E E E Q    E E E E E E Q    E E E E E E Q    E E E E E E E E
||-----------------|----------------|----------------|------------------||
||o-----------5-4--|-----------5-4--|-----------5-4--|-----------------o||
||o----------------|----------------|----------------|-----------7-7-9-o||
||--0-0-0-0-0------|-0-0-0-0-0------|-5-5-5-5-5------|-7-7-7-7-7--------||


   "Don't forget yourselves.."
    S S S S S S S S S S E Q    S S S S S S S S S S E Q
||---------------------------|--------------------------|
||o--------------------------|--------------------------|
||o---------------------4-5--|---------------------4-5--|
||--0-0-0-0-0-0-0-0-0--------|-0-0-0-0-0-0-0-0-0--------|


  S S S S S S S S S S  E  Q    S S E S S Q  S S S S E
|----------------------------|-------------------------||
|----------------------------|------------------------o||
|----------------------------|------------------------o||
|-9-9-9-9-9-9-9-9-9---11-12--|-5-5---5-5----5---5-5----||


 "You'll find me in the.."
  Wx4
|--------|
|--------|
|--------|
|--------|


    E E E E E E E E   E E E E E E E E   E E E E E E E E   E E E E E E E E  3x
||------------------|-----------------|-----------------|------------------||
||o-----------------|-----------------|-----------------|-----------------o||
||o-----------------|-----------------|-----------------|-----------------o||
||--0-0-0-2-2-0-0-5-|-5-0-0-7-7-7-7-7-|-0-0-0-2-2-2-2-5-|-5-5-5-5-5-5-5-5--||


  E E E E E E E E   E E E E E E E E   E E E E E E E E   W
|-----------------|-----------------|-----------------|------||
|-----------------|-----------------|-----------------|------||
|-----------------|-----------------|-----------------|------||
|-2-2-2-2-2-2-2-2-|-5-5-5-5-5-5-5-5-|-2-2-2-2-2-2-2-2-|-5----||


   Outro Breakdown
    S S S S S S S S S S E S S E   E E E E S S E S S E
||------------------------------|---------------------|
||o-----------------------------|---------------------|
||o-----------------------------|---------------------|
||--0-0-0-0-0-0-0-0-0-0---0-0---|---0-0-0-0-0---0-0---|


  S S S S S S S S S S E S S E   S S E S S E E S E S E
|-----------------------------|------------------------||
|-----------------------------|-----------------------o||
|-----------------------------|-----------------------o||
|-0-0-0-0-0-0-0-0-0-0---0-0---|-0-0---0-0---0-0-0-0-0--||



Duration Legend
---------------
W - whole; H - half; Q - quarter; E - 8th; S - 16th; T - 32nd; X - 64th; a - acciaccatura
+ - note tied to previous; . - note dotted; .. - note double dotted
Uncapitalized letters represent notes that are staccato (1/2 duration)
Irregular groupings are notated above the duration line
Duration letters will always appear directly above the note/fret number it represents the
duration for.  Duration letters with no fret number below them represent rests.  Multi-
bar rests are notated in the form Wxn, where n is the number of bars to rest for.  Low
melody durations appear below the staff

Tablature Legend
----------------
 h   - hammer-on
 p   - pull-off
 b   - bend
 pb  - pre-bend
 r   - bend release (if no number after the r, then release immediately)
 /\  - slide into or out of (from/to "nowhere")
 s   - legato slide
 S   - shift slide
 - natural harmonic
[n]  - artificial harmonic
n(n) - tapped harmonic
 ~   - vibrato
 tr  - trill
 T   - tap
 TP  - trem. picking
 PM  - palm muting
\n/  - tremolo bar dip; n = amount to dip
 \n  - tremolo bar down
 n/  - tremolo bar up
/n\  - tremolo bar inverted dip
 =   - hold bend; also acts as connecting device for hammers/pulls
 <> - volume swell (louder/softer)
 x   - on rhythm slash represents muted slash
 o   - on rhythm slash represents single note slash

Misc Legend
-----------
 |  - bar
||  - double bar
||o - repeat start
o|| - repeat end
*|  - double bar (ending)
 :  - bar (freetime)
 $  - Segno
 &  - Coda
Tempo markers -  = BPM(8/16=s8/s16), where s8 = swing 8ths, s16 = swing 16ths


** Generated using Power Tab Editor by Brad Larsen: The Official Power Tab Web Site
Suggest correction
Give kudos to tab author, rate the tab!
1 2 3 4 5
comments
print report bad tab
guest
You may want to rate the tab now too:
select rating
Wanna post a correction for this tab? Suggest correction