Oops, an error
Loading. Please wait.

The Price We Pay Tab

version 1
version 1

Whole song

  • Added a piano to guitar transposure, Organization, and chord corrections.

Interactive

44,064 views 12 this week
9 commentsread comments
1 2 3 4 5
x 15
add to favorites
launch autoscroll
font size
0
reset
how to read this tab
guitar tuner
Autoscroll
slow
fast
+/-
esc
set tempo
stop
Help us to improve Ultimate-Guitar.com Take our survey!
×
Author
I saw the other tab on here and thought it was a bit incomplete, so I decided to tab 
I am at least 99% sure is right. There are a few chords that make this a lot easier to play. 
I put them above the part that you play along with.

Tuning: Drop C (CGCFAD)

[Intro]

Chords:

C9           G3       Asus7

D|-3-|     D|---|    D|-3-|
A|-3-|     A|-3-|    A|-3-|
F|-0-|     F|-0-|    F|-0-|
C|-2-|     C|-0-|    C|-2-|
G|-3-|     G|-2-|    G|-0-|
C|---|     C|---|    C|---|

So heres the song.
D|----3-----------|         D|----3---------|
A|------3------3--|         A|------3-----3-|
F|--------0----0--|         F|--------0---0-|
C|--2----------0--|         C|--2---------0-|
G|3------------2--|         G|0-----------2-|
C|----------------|(x3)     C|--------------|

Repeat (x2)

[Verse]
Okay for this part there are two guitars.

[Lead]
D|----------------------------------------------------------------|
A|------12-15~-----------12-15~---------------12-15~--------------|
F|11-12------------11-12---------12-11--11-12---------11-12-14p12-|
C|----------------------------------------------------------------|
G|----------------------------------------------------------------|
C|----------------------------------------------------------------|(x2)

D|------------------------|
A|------12-15-------15-12-|
F|11-12-------11-12-------|
C|------------------------|
G|------------------------|
C|------------------------|(x8)
Then repeat first part twice

Rhythem (Acoustic):
this part uses three different chords. The C9 from up top, E minor, and A minor. If you 
don't know the other two they are here. Figure out the strumming yourself.

   Em     Am
D|-0-|   |-0-|
A|-0-|   |-1-|
F|-0-|   |-2-|
C|-2-|   |-2-|
G|-2-|   |-0-|
C|-0-|   |---|


So here is what you play.

  C9         Em
D|-3-|     D|-0-|
A|-3-|     A|-0-|
F|-0-|     F|-0-|
C|-2-|     C|-2-|
G|-3-|     G|-2-|
C|---|     C|-0-|(x3)

I just move my middle finger down a fret when switching between the C9 and the Em.

  Am         Em
D|-0-|     D|-0~-|
A|-1-|     A|-0~-|
F|-2-|     F|-0~-|
C|-2-|     C|-2~-|
G|-0-|     G|-2~-|
C|---|     C|----|

Repeat the two beggining chords, then the Am and Em and end the song on Em.



************************************

| ~  Vibrato
| p  Pull-off

************************************
Suggest correction
comments
print report bad tab
9 comments total. Showing first comments.
-2 reply
Novikka65 10 May 04, 2009 01:47 AM

Is this all in standard?

0 reply
Novikka65 10 May 04, 2009 01:49 AM

haha scratch that last comment, i didn't even notice you put the tuning on the side. haha my bad.

+2 reply
guitarskate37 50 May 16, 2009 11:18 PM

yea its Drop C (CGCFAD). Please rate.

guest
You may want to rate the tab now too:
select rating
Wanna post a correction for this tab? Suggest correction