Oops, an error
Loading. Please wait.

The Price We Pay Tab

version 2
version 2

Whole song

Interactive

5,527 views 1 this week
1 commentread comment
1 2 3 4 5
please rate
add to favorites
launch autoscroll
font size
0
reset
how to read this tab
guitar tuner
Autoscroll
slow
fast
+/-
esc
set tempo
stop
Help us to improve Ultimate-Guitar.com Take our survey!
×
Author
A DAY TO REMEMBER

This is a way to play the song in standard tuning
It sounds pretty accurate, rate, message if any problems

E----1---0----------------------------------------|
B-----1--1----------------------------------------|
G------0-2----------------------------------------| 3x
D--0-----0----------------------------------------|
A-1-----------------------------------------------|
E-------------------------------------------------|

E----1---0-----------------------------------------|
B-----1--1-----------------------------------------|
G------0-2-----------------------------------------|
D--------0-----------------------------------------|
A--1-----------------------------------------------|
E-3------------------------------------------------|

The chords are pretty much the same sound only in chords of course.
Enjoy!
Tabbed by: Kenny Kopcsos
Suggest correction
Give kudos to tab author, rate the tab!
1 2 3 4 5
comments
print report bad tab
1 comment total.
0 reply
guitarskate37 50 wrote on May 16 2009, 11:45 pm

not really. ADTR plays almost everything in Drop C. This doesn't even sound that good. You have to drop down to Drop C. Look at my tab.

guest
You may want to rate the tab now too:
select rating
Please do not post tabs as comments. Select "correction" instead!