Oops, an error
Loading. Please wait.

The Price We Pay Tab

version 3
version 3

Whole song

  • Added a piano to guitar transposure, Organization, and chord corrections.

Interactive

1,003 views 471 this week
no commentswrite comment
1 2 3 4 5
3 more votes to show rating
add to favorites
launch autoscroll
font size
0
reset
how to read this tab
guitar tuner
Autoscroll
slow
fast
+/-
esc
set tempo
stop
Help us to improve Ultimate-Guitar.com Take our survey!
×
Author
Difficulty
Tuning
intermediate
C G C F A D
About this tab version
Added a piano to guitar transposure, Organization, and chord corrections. Was this info helpful? Yes No
Song: The Price We Pay
By: A Day To Remember
Album: For Those Who Have Heart

Tuning: Drop C (CGCFAD)

Hey this is my first tab, so feedback is very appreciated.

I like this song alot, and I could not find tabs to recreate the piano, so I transposed from the piano to
lead guitar, and sounds pretty accurate. Also put the rest of the song tab here too.

Anyways, here it is



[Intro]

  _______________Repeat These Twice________________
 /                   (Acoustic)                    \
/                                                   \

D|---3----3~-|                        D|----3----3~-|
A|----3---3~-|   \                    A|-----3---3~-|   \
F|-----0--0~-|    Repeat three times  F|------0--0~-|    Play After playing play the first riff three times
C|--2-----2~-|    Repeat three times  C|---2-----2~-|    Play After playing play the first riff three times
G|-3------3~-|   /                    G|--0------3~-|   /
C|-----------|                        C|------------|

[Verse]

Lead (Electric) Guitar comes in here

Play this slowly
D|----------------------------------------------------------------|
A|------12-15~-----------12-15~---------------12-15~--------------|   \
F|11-12------------11-12---------12-11--11-12---------11-12-14p12-|    Repeat this twice first time
C|----------------------------------------------------------------|    Repeat this twice first time
G|----------------------------------------------------------------|   /
C|----------------------------------------------------------------|

After that, play this

D|------------------------|
A|------12-15-------15-12-|   \
F|11-12-------11-12-------|    Repeat eight times, then play above twice again.
C|------------------------|    Repeat eight times, then play above twice again.
G|------------------------|   /
C|------------------------|

While the lead plays this, acoustic plays these chords, strumming patterns easy enough to figure out.

  __Play First__
 /              \
/                \
 C9         Em
D|-3-|       D|-0-|
A|-3-|       A|-0-|   \
F|-0-|       F|-0-|    Repeat this chord 3 times
C|-2-|       C|-2-|    Repeat this chord 3 times
G|-3-|       G|-2-|   /
C|---|       C|-2-|


Then, play these chords

 Am         Em
D|-0-|     D|-0~-|
A|-1-|     A|-0~-|  \
F|-2-|     F|-0~-|   Repeat until end
C|-2-|     C|-2~-|   Repeat until end
G|-0-|     G|-2~-|  /
C|---|     C|-2--|

[Outro]

Piano to Guitar Transposure

D|-7-5-3----3----3----7-----7 -3----3--7---7-5-3-2-3----3--7-----7------------|   
A|----------5--5-5-----5-7-5---5--5-5----5---------5--5-5---5-7-5-------------|    \
F|----------5-5--4-------------5-5--4--------------5-5--4----------5--5-5~----|     Repeat As Needed
C|-----------------------------------------------------------------7-7--7~----|     Repeat As Needed 
G|----------------------------------------------------------------------------|    /
C|----------------------------------------------------------------------------|   



 ***********

|  ~ Let Ring

 ***********





Thanks for reading! I hope you got some use out of this tab, and feedback is very appreciated! 









Suggest correction
Give kudos to tab author, rate the tab!
1 2 3 4 5
comments
print report bad tab
guest
You may want to rate the tab now too:
select rating
Wanna post a correction for this tab? Suggest correction