Oops, an error
Loading. Please wait.

This Is The House That Doubt Built Bass Tab

version 1
version 1

Whole song

Interactive

16 views 3 this week
no commentswrite comment
1 2 3 4 5
3 more votes to show rating
add to favorites
launch autoscroll
font size
0
reset
guitar tuner
Autoscroll
slow
fast
+/-
esc
set tempo
stop
Help us to improve Ultimate-Guitar.com Take our survey!
×
Author
Difficulty
Tuning
novice
B E A D F# B
A Day to Remember - This is the House That Doubt Built

Tabbed by: Ash (XxThreeCheersxX)
email: burdickash@gmail.com

Tuning: BEAD

The strumming patterns are a little tough to figure out, but other than that this tab shouldn't be hard!


Verse 
D|----------------------------------------------------------------------------------|
A|----------------------------------------------------------------------------------|
E|----------------------------------------------------------------------------------| x 2
B|-0-0--0--0-0-0--0--0-0-0--0--0-5--5--5--8-8--8--8-8-8--8--8-8-8--8--8-11--11--11--|

Pre-Chorus
D|-----------------------------------------------------------------------------------------------|
A|-----------------------------------------------2-2-2-2-2-2-2-2-2-2-2-2-5-5-5-5-5-5-5-5-5-5-5-5-|
E|-3-3-3-3-3-3-3-3-3-3-3-5-5-5-5-5-5-5-5-5-5-5-5-------------------------------------------------|
B|-----------------------------------------------------------------------------------------------|

D|----------------------------------------------|
A|----------------------------------------------|
E|-3-3-3-3-3-3-3-3-3-3-3-5-5-5-5-5-5-5x---------|
B|----------------------------------------------|

Chorus
D|-------------------------------------------------------------------|
A|-------------------------------------------------------------------|
E|----------------------------------5--5--5-5--5--5-6--6--6-6--6--6--|
B|-3--3--3-3--3--3-3--3--3-3--3--3-----------------------------------|

D|-------------------------------------------------------------------|
A|-------------------------------------------------------------------|
E|-7--7--7-7--7--7-5--5--5-5--5--5--3--3--3-3--3--3-5--5--5-5--5--5--|
B|-------------------------------------------------------------------|

Post-Chorus
D|----------------------------------------|
A|----------------------------------------|
E|-7-7--7--7-7-7--7--7-7-7--7--7-6--6--6--|
B|----------------------------------------|

Verse II 
D|-----------------------------------------------------------------------------------|
A|-----------------------------------------------------------------------------------|
E|-----------------------------------------------------------------------------------| (played staccato)
B|-0-0--0--0-0-0--0--0-0-0--0--0-5-5--5--8-8--8--8-8-8--8--8-8-8--8--8-11-11--11--11-|

D|---------------------------------------------------------------------------------|
A|---------------------------------------------------------------------------------|
E|---------------------------------------------------------------------------------| 
B|-0-0--0--0-0-0--0--0-0-0--0--0-5-5--5--8-8--8--8-8-8--8--8-8-8--8--8-11--11--11--|

Pre-Chorus

Chorus x 2

Bridge
D|-------------------------------------------------------------------------------------|
A|-------------------------------------------------------------------------------------|
E|-7--7--7--7--7--7--7-7-7-7-7-7-7-7-7-7-7-7-3--3--3--3--3--3--3-3-3-3-3-3-3-3-3-3-3-3-|
B|-------------------------------------------------------------------------------------|

D|-------------------------------------------------------------------------------|
A|-5--5--5--5--5--5--------------------------------------------1--1--1--1--1--1--|
E|-------------------5-5-5-5-5-5-5-5-5-5-5-5-3--3--3--3--3--3--------------------|
B|-------------------------------------------------------------------------------|

D|-------------------------------------------------------------------------------------|
A|-------------------------------------------------------------------------------------|
E|-------------------------------------------3--3--3--3--3--3--3-3-3-3-3-3-3-3-3-3-3-3-|
B|-0--0--0--0--0--0--0-0-0-0-0-0-0-0-0-0-0-0-------------------------------------------|

D|-------------------------------------------------------------------------------------|
A|-5--5--5--5--5--5--------------------------------------------------------------------|
E|-------------------5-5-5-5-5-5-5-5-5-5-5-5-3--3--3--3--3--3--5-5-5-5-5-5-5-5-5-5-5-5-|
B|-------------------------------------------------------------------------------------|

Final Chorus
D|-------------------------------------------------------------------|
A|-------------------------------------------------------------------|
E|----------------------------------------------------------6--6--6--|
B|-------------------------------------------------------------------|

D|-------------------------------------------------------------------|
A|-------------------------------------------------------------------|
E|-7--7--7-7--7--7-5--5--5-5--5--5--3--3--3-3--3--3-5--5--5-5--5--5--|
B|-------------------------------------------------------------------|

D|-------------------------------------------------------------------|
A|-------------------------------------------------------------------|
E|----------------------------------5--5--5-5--5--5-6--6--6-6--6--6--|
B|-3--3--3-3--3--3-3--3--3-3--3--3-----------------------------------|

D|-------------------------------------------------------------------|
A|-------------------------------------------------------------------|
E|-7--7--7-7--7--7-5--5--5-5--5--5--3--3--3-3--3--3-5--5--5-5--5--5--|
B|-------------------------------------------------------------------|

Outro
D|-------------------------------------------------------------------|
A|-------------------------------------------------------------------|
E|-------------------------------------------------------------------|
B|-3--3--3-3--3--3-3--3--3-3--3--3--2--2--2-2--2--2-2--2--2-2--2--2--|

D|-------------------------------------------------------------------|
A|-------------------------------------------------------------------|
E|-7--7--7-7--7--7-5--5--5-5--5--5--3--3--3-3--3--3-5--5--5-5--5--5--|
B|-------------------------------------------------------------------|

End on:
D|-------------------------------------------------------------------|
A|-------------------------------------------------------------------|
E|-7~----------------------------------------------------------------|
B|-------------------------------------------------------------------|

Happy playing!


************************************

| x   Dead note
| g   Grace note
| (n) Ghost note
| h   Hammer-on
| p   Pull-off
| r   Release
| >   Accented note
| t   Tapping
| b   Bend
| br  Bend release
| pb  Pre-bend
| pbr Pre-bend release
| /   Slide up
| \   Slide down
| ~   Vibrato
| s   Slap
| P   Pop
| PM  Palm mute
| TR  Trill
| N   Tremolo

************************************
Suggest correction
Give kudos to tab author, rate the tab!
1 2 3 4 5
comments
print report bad tab
guest
You may want to rate the tab now too:
select rating
Wanna post a correction for this tab? Suggest correction