Oops, an error
Loading. Please wait.

This Is The House That Doubt Built Tab

version 1
version 1

Whole song

Interactive

24,534 views 42 this week
no commentswrite comment
1 2 3 4 5
excellent!
x 3
add to favorites
launch autoscroll
font size
0
reset
how to read this tab
guitar tuner
Tab Pro tools
  • play this tab
  • loop segment
  • change instrument
  • show fretboard
  • metronome
Autoscroll
slow
fast
+/-
esc
set tempo
stop
Contributor
Difficulty
Tuning
novice
B F# B E G# C#
This is my first tab, just so you all know im not a new guy ive been 
playing for 5 years and since then all the music i play now i all practilly 
learn by ear, this song is played in drop B, really low but its a great 
song and i hope you enjoy! (if you have any suggestions feel free to email
me at Big_marshall_amp@yahoo.com alsom, im sorry if there are any mistakes
i havent heard this through distortion yet because i tabbed it on my acoustic, again- Enjoy!)

Tuning from lowest to highest: B, F#, B, E, G#, C#

Song: The House That Doubt Built
Band: A Day to Remember
Album: What Seperates Me From You

Key: (.) plammute
     (x) mute
   If nubers together like this |----12----| it isnt a 1 or a 2 its a 12

INTRO_____________________________________________________________
      it should be pretty easy to figure out the strumming pattern
C#|----------------------------|         |-------------------|
G#|----------------------------|         |-------------------|
 E|----------------------------|         |-------------------|
 B|----0-----5---8----12-------| then to |--0---5-----8------|
F#|----0-----5---8----12-------|         |--0---5-----8------|
 B|----0-----5---8----11-------|         |--0---5-----8------|


VERSE______________________________________________________________
   0:15
simple strumming to figure out
Rythm-
C#|----------------------------|         
G#|----------------------------|      
 E|----------------------------|
 B|----0-----5---8----12-------|   x2 
F#|----0-----5---8----12-------|
 B|----0-----5---8----11-------|
0:31
C#|---------------------------------------------------|
G#|---------------------------------------------------|
 E|---------------------------------------------------|
 B|----8----10---0---3-----then-starts>>--8---10------|
F#|----8----10---0---3----@-beginning>>>--8---10------|
 B|----8----10---0---3----of-this-riff>>--8---10------|


                    Lead- comes in on the 8, 10, 0, 3 riff
  play this   C#|--------------------------------------|
  during the  G#|---12-9------10-9----9----10----------|
 8, 10, 0, 3   E|--------10--------10---10----10-------|
               B|--------------------------------------| play 6x
              F#|--------------------------------------|
               B|--------------------------------------|

CHORUS_______________________________________________________________
0:43
Rythm
C#|------------------------------------------------------------|
G#|------------------------------------------------------------|
 E|------------------------------------------------------------|
 B|--3----10----12----10----8----10----------0~~~~---12-12-12--|
F#|--3----10----12----10----8----10----------0~~~~---12-12-12--|
 B|--3----10----12----10----8----10----------0~~~~---11-11-11--|

Lead
C#|-----------------------------------------------------|
G#|-----------------------------------------------------|
 E|--17-15-14-12---17-15-19-21--22-21-19-15-------------|
 B|--x--x--x--x----x--x--x--x---x--x--x--x---0~~~~------|
F#|--15-13-12-10---15-13-17-19--20-19-17-13--0~~~~------|
 B|------------------------------------------0~~~~------|

VERSE________________________________________________________________
1:03
C#|--------------------------------------------------------------|
G#|--------------------------------------------------------------|
 E|--------------------------------------------------------------|
 B|---0-0-0---5-5-5---8-8-8-8--12-12---0~~-3~~-8~~-12-12-12------|
F#|---0-0-0---5-5-5---8-8-8-8--12-12---0~~-3~~-8~~-12-12-12------|
 B|---0-0-0---5-5-5---8-8-8-8--11-11---0~~-3~~-8~~-11-11-11------|
      . . .   . . .   . . . .  .  .    .   .   .
1:10
C#|---------------------------------------------------|
G#|---------------------------------------------------|
 E|---------------------------------------------------|
 B|----8----10---0---3-----then-starts>>--8---10------|
F#|----8----10---0---3----@-beginning>>>--8---10------|
 B|----8----10---0---3----of-this-riff>>--8---10------|


                    Lead- comes in on the 8, 10, 0, 3 riff
  play this   C#|--------------------------------------|
  during the  G#|---12-9------10-9----9----10----------|
 8, 10, 0, 3   E|--------10--------10---10----10-------|
               B|--------------------------------------| play 6x
              F#|--------------------------------------|
               B|--------------------------------------|



CHORUS_______________________________________________________________
1:30
Rythm-
C#|---------------------------------|
G#|---------------------------------|
 E|---------------------------------|
 B|---3---10---12---10---8---10-----|
F#|---3---10---12---10---8---10-----|x2
 B|---3---10---12---10---8---10-----|

Lead-
C#|------------------------------------|
G#|------------------------------------|
 E|--17-17-15-12-14-15-14-12-10-12-9---|
 B|--x--x--x--x--x--x--x--x--x--x--x---|
F#|--15-15-13-10-12-13-12-10-8--10-7---|
 B|------------------------------------|

C#|---------------------------------------------------------|
G#|---------------------------------------------------------|
 E|---17-15-14-15--17-15-18-21--17-15-14-12--17-14-12-10----|
 B|---x--x--x--x---x--x--x--x---x--x--x--x---x--x--x--x-----|
F#|---15-13-12-13--15-13-16-19--15-13-12-10--15-12-10-8-----|
 B|---------------------------------------------------------|


BRIDGE____________________________________________________________
2:02
Rythm-
C#|--------------------------------------------------|        |-------|
G#|--------------------------------------------------|        |-------|
 E|--------------------------------------------------|        |-------|
 B|--0-0--0-0---8-8--8-8---3-3--3-3---8-8--12~-12~---|        |--3~~~-|
F#|--0-0--0-0---8-8--8-8---3-3--3-3---8-8--12~-12~---|        |--3~~~-|
 B|--0-0--0-0---8-8--8-8---3-3--3-3---8-8--11~-11~---|x2 then |--3~~~-|
          . .        . .        . .

Lead-
C#|--------------------------------------------------|
G#|--------------------------------------------------|
 E|--7--9-10--15--9-10--5--9-10-------7~~10-----9----|
 B|--x--x-x---x---x-x---x--x-x---8~--8~~---11~--x7---|
F#|--5--7-8---13--7-8---3--7-8---x--------------7x---|
 B|------------------------------8~--------------7---|

C#|------------------------------------------|                |-------|
G#|------------------------------------------|                |-------|
 E|--7--9-10--15--9-10--5--9-10--3~3~-5~5~---|                |-------| 
 B|--x--x-x---x---x-x---x--x-x---x-x--x-x----|   then--->     |--3~~~-|
F#|--5--7-8---13--7-8---3--7-8---1~1~-3~3~---|                |--3~~~-|
 B|------------------------------------------|                |--3~~~-|


CHORUS_______________________________________________________________
2:41
Rythm-
C#|---------------------|      |----------------------------------|
G#|---------------------|lead  |----------------------------------|
 E|---------------------|comes |----------------------------------|
 B|---12--10---8---10---|in    |--3---10---12---12---10---8---10--|
F#|---12--10---8---10---|here  |--3---10---12---12---10---8---10--|
 B|---12--10---8---10---|      |--3---10---11---12---10---8---10--|

Lead-
C#|---------------------------------------------------------|
G#|---------------------------------------------------------|
 E|---17-15-14-15--17-15-18-21--17-15-14-12--17-14-12-10----|
 B|---x--x--x--x---x--x--x--x---x--x--x--x---x--x--x--x-----|
F#|---15-13-12-13--15-13-16-19--15-13-12-10--15-12-10-8-----|
 B|---------------------------------------------------------|


OUTRO____________________________________________________________
3:05
Rythm-
C#|----------------------------------------------------|
G#|----------------------------------------------------|
 E|----------------------------------------------------|
 B|---3~3~-3~3~--12~12~-10~10~-8~8~-10~10~--12~~~~~~---|
F#|---3~3~-3~3~--12~12~-10~10~-8~8~-10~10~--12~~~~~~---|
 B|---3~3~-2~2~--12~12~-10~10~-8~8~-10~10~--12~~~~~~---|

Lead-
C#|-----------8---------|
G#|----8--8--8--8--8----|
 E|--10-10-10----10-----|
 B|---------------------|
F#|---------------------|x8
 B|---------------------|

THE END if you have any questions or corrections please email me!


comments
We did not receive enough feedback on this tab! Please rate:
print report bad tab
1 2 3 4 5
I want to post or [tab]
guest
You may want to rate the tab now too:
select rating
Please do not post tabs as comments. Select "correction" instead!