Oops, an error
Loading. Please wait.

Violence Enough Is Enough Tab

version 1
version 1

Whole song

Interactive

27,724 views 51 this week
6 commentsread comments
1 2 3 4 5
accurate
x 8
add to favorites
launch autoscroll
font size
0
reset
how to read this tab
guitar tuner
Tab Pro tools
  • play this tab
  • loop segment
  • change instrument
  • show fretboard
  • metronome
×
Best way to learn
"Violence Enough Is Enough"
Autoscroll
slow
fast
+/-
esc
set tempo
stop
Contributor
Difficulty
Tuning
intermediate
A# F A# D# G C
Intro - 
Guitar 1
C |---------------------|---------------|-------------------|------------------|
G#|---------------------|---------------|-------------------|------------------|
D#|---------------------|---------------|-------------------|---------7777667--|
A#|--7--------5h7p5-5---|7-------8888777|7--------5h7p5-5---|7--------xxxxxxx--|
F |---5-7-8-7------8-578|-5-7-8-7-------|-5-7-8-7------8-578|-5-7-8-7-5555445--|
A#|----0-0-0-0----------|--5-5-5-5------|--8-8-8-8----------|--7-7-7-7---------|
       . . . .             . . . .         . . . .             . . . .
Guitar 2
C |-------------------------------|-----------------------------|
G#|-------------------------------|-----------------------------|
D#|-------------------------------|-----------------------------|          
A#|-------------------------------|-----------------------------|
F |--00000000-0-0-0--0--0-0-0-0-0-|55555555-5-5-5--5--5-5-5-5-5-|
A#|--00000000-0-0-0--0--0-0-0-0-0-|55555555-5-5-5--5--5-5-5-5-5-|
     ........ . . .  .  . . . . .  ........ . . .  .  . . . . .  
C |-------------------------------|-----------------------------|
G#|-------------------------------|-----------------------------|
D#|-------------------------------|-----------------------------|           
A#|-------------------------------|-----------------------------|
F |--88888888-8-8-8--8--8-8-8-8-8-|77777777-7-7-7--7--7-7-7-7-7-|
A#|--88888888-8-8-8--8--8-8-8-8-8-|77777777-7-7-7--7--7-7-7-7-7-|
     ........ . . .  .  . . . . .  ........ . . .  .  . . . . .

Verse
C |----------------------------------------|----------------------------------------|
G#|----------------------------------------|----------------------------------------|
D#|----------------------------------------|----------------------------------------|
A#|--3----------------7--3-----------------|3--------------/87-7--7--7--------------|
F |---5----------------5--5----------------|-5----5----8------5-5--5--5-5-4-5-4-4-5-|
A#|----0-0-0-870-0-0----0--0-0-0--/8777330-|--7-8--7-8---5-------0--0--0---0--------|
       .   .               .   .              .
comments
print report bad tab
6 comments total. Showing first comments.
0 reply
DysterRange113 wrote on January 1 2013, 05:38 pm

It's good for what I see, it be even better if you (or someone) would finish it.

0 reply
bcwhitty14 wrote on January 7 2013, 01:45 pm

EDIT:
C |----------------|---------------|----------------|----------------|
G#|----------------|---------------|----------------|----------------|
D#|-7-7-7-7-7-7-7-7|7-7-7-7-7-7-7-7|1010101010101010|6-6-6-6-6-6-6-6-|
A#|-x-x-x-x-x-x-x-x|x-x-x-x-x-x-x-x|x-x-x-x-x-x-x-x-|x-x-x-x-x-x-x-x-|
F |-5-5-5-5-5-5-5-5|5-5-5-5-5-5-5-5|8-8-8-8-8-8-8-8-|4-4-4-4-4-4-4-4-|
A#|----------------|---------------|----------------|----------------|

C |----------------|---------------|---------------|-----------------|
G#|----------------|---------------|---------------|-----------------|
D#|-3-3-3-3-3-3-3-3|3-3-3-3-3-3-3-3|2-2-2-2-2-2-2-2|6-6-6-6-6-6-6-6--|
A#|-x-x-x-x-x-x-x-x|x-x-x-x-x-x-x-x|x-x-x-x-x-x-x-x|x-x-x-x-x-x-x-x--|
F |-1-1-1-1-1-1-1-1|1-1-1-1-1-1-1-1|0-0-0-0-0-0-0-0|4-4-4-4-4-4-4-4--|
A#|----------------|---------------|---------------|-----------------|

Pre-Chorus
C |-----------------|-----------------|
G#|-----------------|-----------------|
D#|-----------------|-----------------|
A#|----8~5-7~5-7p5--|---3~0--2~0-2p0--|
F |---5-----------5-|-0-------------0-|
A#|--5-5--5---5-----|0-0---0----0-----|
. . . . . . . .
^I'm not too sure about this part, but its good enough for now.

-2 reply
jordan163 wrote on April 25 2013, 09:15 am

tuning is wrong its b flat not a sharp.

I want to post or [tab]
guest
You may want to rate the tab now too:
select rating
Please do not post tabs as comments. Select "correction" instead!