Oops, an error
Loading. Please wait.

We Got This Bass Tab

88 views 1 this week
no commentswrite comment
1 2 3 4 5
3 more votes to show rating
add to favorites
launch autoscroll
font size
0
reset
guitar tuner
Autoscroll
slow
fast
+/-
esc
set tempo
stop
Help us to improve Ultimate-Guitar.com Take our survey!
×
Author
Difficulty
Tuning
novice
C G C F A D
A Day to Remember - We Got This

Tabbed by: Ash (XxThreeCheersxX)
email: burdickash@gmail.com

Intro
F|---------|
C|---------|
G|---------|
C|-3-3-3-3-|

F|-----------------------------------------------------------------|
C|-----------------------------------------------------------------|
G|-3-3-3-3-3-3-3-3-----------------0-0-0-0-0-0-0-0-----------------| x 2
C|-----------------3-3-3-3-3-3-3-3-----------------3-3-3-3-3-3-3-3-|

Verse I
F|-------------------------------------------------------------------------------------------------|
C|-------------------------------------------------------------------------------------------------|
G|-3--3-3--3-3--3--3-3-3-3-3--3-3--3-3--3--3-3-3-3-0--0-0--0-0--0--0-0-0-0-------------------------| x 3
C|-------------------------------------------------------------------------3--3-3--3-3--3--3-3-3-3-|

F|-------------------------------------------------------------------------------------------------|
C|-------------------------------------------------------------------------------------------------|
G|-------------------------------------------------------------------------------------------------|
C|-7--7-7--7-7--7--7-7-7-7-5--5-5--5-5--5--5-5-5-5-3--3-3--3-3--3--3-3-3-3-3---3---3---------------|

Chorus
F|-----------------------------------------------------------------|
C|-----------------------------------------------------------------|
G|-3-3-3-3-3-3-3-3-----------------0-0-0-0-0-0-0-0-----------------| 
C|-----------------3-3-3-3-3-3-3-3-----------------3-3-3-3-3-3-3-3-|

F|-----------------------------------------------------------------|
C|-----------------------------------------------------------------|
G|-3-3-3-3-3-3-3-3-----------------0-0-0-0-0-0-0-0-----------------| 
C|-----------------3-3-3-3-3-3-3-3-----------------3x--------------|

Verse II
F|-------------------------------------------------------------------------------------------------|
C|-------------------------------------------------------------------------------------------------|
G|-3--3-3--3-3--3--3-3-3-3-3--3-3--3-3--3--3-3-3-3-0--0-0--0-0--0--0-0-0-0-------------------------| x 2
C|-------------------------------------------------------------------------3--3-3--3-3--3--3-3-3-3-|

F|-------------------------------------------------------------------------------------------------|
C|-------------------------------------------------------------------------------------------------|
G|-------------------------------------------------------------------------------------------------|
C|-7--7-7--7-7--7--7-7-7-7-5--5-5--5-5--5--5-5-5-5-3--3-3--3-3--3--3-3-3-3-3-------3--------3------|

Chorus II
F|-----------------------------------------------------------------|
C|-----------------------------------------------------------------|
G|-3-3-3-3-3-3-3-3-----------------0-0-0-0-0-0-0-0-----------------| x 3
C|-----------------3-3-3-3-3-3-3-3-----------------3-3-3-3-3-3-3-3-|

F|-----------------------------------------------------------------|
C|-----------------------------------------------------------------|
G|-3-3-3-3-3-3-3-3-----------------0-0-0-0-2-2-3-3-----------------| 
C|-----------------3-3-3-3-3-3-3-3-----------------3-3-3-3-3-3-3-3-|

Bridge
F|-----------------------------------2~----------------------------------|
C|-------------------3~--------------------------------3~----------------|
G|-3~--------------------------------------------------------------------| x 3
C|-----------------------------------------------------------------------|

F|---------------------------------------------------------------------------|
C|---------------------------------------------------------------------------|
G|-3-3-3-3-3-3-3-3-----------------0-0-0-0-0-0-0-0---------------------------|
C|-----------------3-3-3-3-3-3-3-3-----------------3x------------------------|

F|-----------------------------------------------------------------|
C|-----------------------------------------------------------------|
G|-3-3-3-3-3-3-3-3-----------------0-0-0-0-0-0-0-0-----------------| x 2
C|-----------------3-3-3-3-3-3-3-3-----------------3-3-3-3-3-3-3-3-|

F|-----------------------------------------------------------------|
C|---------------------------------3-3-3-3-3-3-3-3-3-3-3-3-3-3-3-3-|
G|-3-3-3-3-3-3-3-3-3-3-3-3-3-3-3-3---------------------------------|
C|-----------------------------------------------------------------|

Final Chorus
F|-----------------------------------------------------------------|
C|-----------------------------------------------------------------|
G|---------------------------------0-0-0-0-0-0-0-0-----------------| 
C|-------------------------------------------------3-3-3-3-3-3-3-3-|

F|-----------------------------------------------------------------|
C|-----------------------------------------------------------------|
G|-3-3-3-3-3-3-3-3-----------------0-0-0-0-2-2-3-3-----------------| x 2
C|-----------------3-3-3-3-3-3-3-3-----------------3-3-3-3-3-3-3-3-|

F|-----------------------------------------------------------------|
C|-----------------------------------------------------------------|
G|-0-0-0-0-3-3-3-------------------3~------------------------------| 
C|---------------3x------------------------------------------------|

Happy playing!

************************************

| x   Dead note
| g   Grace note
| (n) Ghost note
| h   Hammer-on
| p   Pull-off
| r   Release
| >   Accented note
| t   Tapping
| b   Bend
| br  Bend release
| pb  Pre-bend
| pbr Pre-bend release
| /   Slide up
| \   Slide down
| ~   Vibrato
| s   Slap
| P   Pop
| PM  Palm mute
| TR  Trill
| N   Tremolo

************************************
Suggest correction
Give kudos to tab author, rate the tab!
1 2 3 4 5
comments
print report bad tab
guest
You may want to rate the tab now too:
select rating
Wanna post a correction for this tab? Suggest correction