Oops, an error
Loading. Please wait.

We Got This Tab

1,048 views 24 this week
1 commentread comment
1 2 3 4 5
x 3
add to favorites
launch autoscroll
font size
0
reset
how to read this tab
guitar tuner
Autoscroll
slow
fast
+/-
esc
set tempo
stop
Help us to improve Ultimate-Guitar.com Take our survey!
×
Author
Difficulty
Tuning
novice
C G C F A D
[Intro]

D|---------------------------------------------------------------------------|
A|------13----------13----------13---------12--------------------------------|
F|---------12----------12----------12----------12----------------------------|
C|-10----------10----------10----------10------------------------------------|
G|---------------------------------------------------------------------------|
C|---------------------------------------------------------------------------|

D|---------------------------------------------------------------------------|
A|------13----------13----------13---------12--------------------------------|
F|---------12----------12----------12----------12----------------------------|
C|-10----------10----------10----------10------------------------------------|
G|---------------------------------------------------------------------------|
C|---------------------------------------------------------------------------|

D|---------------------------------------------------------------------------|
A|---------------------------------------------------------------------------|
F|-10-10-10-9-9-9-7-7-7-9-9-9-9-9-9---10-10-10-9-9-9-7-7-7-9-9-9-7-7-7-5-5-5-|
C|---------------------------------------------------------------------------|
G|-8--8--8--7-7-7-5-5-5-7-7-7-7-7-7---8--8--8--7-7-7-5-5-5-7-7-7-5-5-5-3-3-3-|
C|---------------------------------------------------------------------------|

D|---------------------------------------------------------------------------|
A|--------------------------------------------5-----5-6----------------------|
F|-10-10-10-9-9-9-12-12-12-9-9-9-9-9--------5-----5-----7-5------------------|
C|--------------------------------------7-5-----7----------------------------|
G|-8--8--8--7-7-7-10-10-10-7-7-7-7-7-----------------------------------------|
C|---------------------------------------------------------------------------|

[Verse]

D|---------------------------------------------------------------------------|
A|---------------------------------------------------------------------------|
F|-5-5-5--5-5-5--5-5--5-5-5--5-5-5--5-5--------------------------------------|
C|-5-5-5--5-5-5--5-5--5-5-5--5-5-5--5-5--7-7-7--7-7-7--7-7-3-3-3--3-3-3--3-3-|
G|-3-3-3--3-3-3--3-3--3-3-3--3-3-3--3-3--7-7-7--7-7-7--7-7-3-3-3--3-3-3--3-3-|
C|---------------------------------------7-7-7--7-7-7--7-7-3-3-3--3-3-3--3-3-|

D|---------------------------------------------------------------------------|
A|---------------------------------------------------------------------------|
F|-5-5-5--5-5-5--5-5--5-5-5--5-5-5--5-5--------------------------------------|
C|-5-5-5--5-5-5--5-5--5-5-5--5-5-5--5-5--7-7-7--7-7-7--7-7-3-3-3--3-3-3--3-3-|
G|-3-3-3--3-3-3--3-3--3-3-3--3-3-3--3-3--7-7-7--7-7-7--7-7-3-3-3--3-3-3--3-3-|
C|---------------------------------------7-7-7--7-7-7--7-7-3-3-3--3-3-3--3-3-|

D|---------------------------------------------------------------------------|
A|---------------------------------------------------------------------------|
F|-5-5-5-----5-5-5-----------------------------------------------------------|
C|-5-5-5-----5-5-5-----------------------------------------------------------|
G|-3-3-3-----3-3-3----7-7-7----3-3-3----7-7-7--5-5-5--3-3-3------------------|
C|--------------------7-7-7----3-3-3----7-7-7--5-5-5--3-3-3------------------|


[Chorus]

D|---------------------------------------------------------------------------|
A|---------------------------------------------------------------------------|
F|-5-5-5-5-5-5-5-5-----------------------------------------------------------|
C|-5-5-5-5-5-5-5-5-3-3-3-3-3-3-3-3-7-7-7-7-7-7-7-7-3-3-3-3-3-3-3-3-----------|
G|-3-3-3-3-3-3-3-3-3-3-3-3-3-3-3-3-7-7-7-7-7-7-7-7-3-3-3-3-3-3-3-3-----------|
C|-----------------3-3-3-3-3-3-3-3-7-7-7-7-7-7-7-7-3-3-3-3-3-3-3-3-----------|

D|---------------------------------------------------------------------------|
A|---------------------------------------------------------------------------|
F|-5-5-5-5-5-5-5-5-----------------------------------------------------------|
C|-5-5-5-5-5-5-5-5-3-3-3-3-3-3-3-3-7-7-7-7-7-7-7-7-3-------------------------|
G|-3-3-3-3-3-3-3-3-3-3-3-3-3-3-3-3-7-7-7-7-7-7-7-7-3-------------------------|
C|-----------------3-3-3-3-3-3-3-3-7-7-7-7-7-7-7-7-3-------------------------|

[Verse 2]

D|---------------------------------------------------------------------------|
A|---------------------------------------------------------------------------|
F|-5-5-5-5-5-5-5-5----10-9-9--7-9-9--12-9-9--7-9-5---------------------------|
C|---------------------------------------------------------------------------|
G|-3-3-3-3-3-3-3-3----8--7-7--5-7-7--10-7-7--5-7-3---------------------------|
C|---------------------------------------------------------------------------|

D|---------------------------------------------------------------------------|
A|---------------------------------------------------------------------------|
F|-5-5-5--5-5-5--5-5--5-5-5--5-5-5--5-5--------------------------------------|
C|-5-5-5--5-5-5--5-5--5-5-5--5-5-5--5-5--7-7-7--7-7-7--7-7-3-3-3--3-3-3--3-3-|
G|-3-3-3--3-3-3--3-3--3-3-3--3-3-3--3-3--7-7-7--7-7-7--7-7-3-3-3--3-3-3--3-3-|
C|---------------------------------------7-7-7--7-7-7--7-7-3-3-3--3-3-3--3-3-|

D|---------------------------------------------------------------------------|
A|---------------------------------------------------------------------------|
F|-5-5-5-----5-5-5-----------------------------------------------------------|
C|-5-5-5-----5-5-5-----------------------------------------------------------|
G|-3-3-3-----3-3-3----7-7-7----3-3-3----7-7-7--5-5-5--3-3-3----3-3-3---------|
C|--------------------7-7-7----3-3-3----7-7-7--5-5-5--3-3-3----3-3-3---------|

[Chorus]

D|---------------------------------------------------------------------------|
A|---------------------------------------------------------------------------|
F|-5-5-5-5-5-5-5-5-----------------------------------------------------------|
C|-5-5-5-5-5-5-5-5-3-3-3-3-3-3-3-3-7-7-7-7-7-7-7-7-3-3-3-3-3-3-3-3-----------|
G|-3-3-3-3-3-3-3-3-3-3-3-3-3-3-3-3-7-7-7-7-7-7-7-7-3-3-3-3-3-3-3-3-----------|
C|-----------------3-3-3-3-3-3-3-3-7-7-7-7-7-7-7-7-3-3-3-3-3-3-3-3-----------|

A|---------------------------------------------------------------------------|
F|-5-5-5-5-5-5-5-5-----------------------------------------------------------|
C|-5-5-5-5-5-5-5-5-3-3-3-3-3-3-3-3-7-7-7-7-7-7-7-7-3-3-3-3-3-3-3-3-----------|
G|-3-3-3-3-3-3-3-3-3-3-3-3-3-3-3-3-7-7-7-7-7-7-7-7-3-3-3-3-3-3-3-3-----------|
C|-----------------3-3-3-3-3-3-3-3-7-7-7-7-7-7-7-7-3-3-3-3-3-3-3-3-----------|

A|---------------------------------------------------------------------------|
F|-5-5-5-5-5-5-5-5-----------------------------------------------------------|
C|-5-5-5-5-5-5-5-5-3-3-3-3-3-3-3-3-7-7-7-7-7-7-7-7-3-3-3-3-3-3-3-3-----------|
G|-3-3-3-3-3-3-3-3-3-3-3-3-3-3-3-3-7-7-7-7-7-7-7-7-3-3-3-3-3-3-3-3-----------|
C|-----------------3-3-3-3-3-3-3-3-7-7-7-7-7-7-7-7-3-3-3-3-3-3-3-3-----------|

A|---------------------------------------------------------------------------|
F|-5-5-5-5-5-5-5-5-----------------------------------------------------------|
C|-5-5-5-5-5-5-5-5-3-3-3-3-3-3-3-3-7-7-7-7-7-7-7-7-3-3-3-3-3-3-3-3-----------|
G|-3-3-3-3-3-3-3-3-3-3-3-3-3-3-3-3-7-7-7-7-7-7-7-7-3-3-3-3-3-3-3-3-----------|
C|-----------------3-3-3-3-3-3-3-3-7-7-7-7-7-7-7-7-3-3-3-3-3-3-3-3-----------|

[Bridge]

D|------8----------8---------8-----8-7--------8-------8------8----8-7--------|
A|----8----------8---------8----------------8-------8------8-----------------|
F|---------------------------------------------------------------------------|
C|-10---------9--------------------------10-------9--------------------------|
G|----------------------8-------8------------------------8----8--------------|
C|---------------------------------------------------------------------------|

D|------8----------8---------8-----8-7--------8-------8------8----8-7--------|
A|----8----------8---------8----------------8-------8------8-----------------|
F|---------------------------------------------------------------------------|
C|-10---------9--------------------------10-------9--------------------------|
G|----------------------8-------8------------------------8----8--------------|
C|---------------------------------------------------------------------------|


[Chorus]

D|---------------------------------------------------------------------------|
A|---------------------------------------------------------------------------|
F|-5-5-5-5-5-5-5-5-----------------------------------------------------------|
C|-5-5-5-5-5-5-5-5-3-3-3-3-3-3-3-3-7-7-7-7-7-7-7-7-3-3-3-3-3-3-3-3-----------|
G|-3-3-3-3-3-3-3-3-3-3-3-3-3-3-3-3-7-7-7-7-7-7-7-7-3-3-3-3-3-3-3-3-----------|
C|-----------------3-3-3-3-3-3-3-3-7-7-7-7-7-7-7-7-3-3-3-3-3-3-3-3-----------|

A|---------------------------------------------------------------------------|
F|-5-5-5-5-5-5-5-5-----------------------------------------------------------|
C|-5-5-5-5-5-5-5-5-3-3-3-3-3-3-3-3-7-7-7-7-7-7-7-7-3-3-3-3-3-3-3-3-----------|
G|-3-3-3-3-3-3-3-3-3-3-3-3-3-3-3-3-7-7-7-7-7-7-7-7-3-3-3-3-3-3-3-3-----------|
C|-----------------3-3-3-3-3-3-3-3-7-7-7-7-7-7-7-7-3-3-3-3-3-3-3-3-----------|

A|---------------------------------------------------------------------------|
F|-5-5-5-5-5-5-5-5-----------------------------------------------------------|
C|-5-5-5-5-5-5-5-5-3-3-3-3-3-3-3-3-7-7-7-7-7-7-7-7-3-3-3-3-3-3-3-3-----------|
G|-3-3-3-3-3-3-3-3-3-3-3-3-3-3-3-3-7-7-7-7-7-7-7-7-3-3-3-3-3-3-3-3-----------|
C|-----------------3-3-3-3-3-3-3-3-7-7-7-7-7-7-7-7-3-3-3-3-3-3-3-3-----------|

A|---------------------------------------------------------------------------|
F|-5-5-5-5-5-5-5-5-----------------------------------------------------------|
C|-5-5-5-5-5-5-5-5-3-3-3-3-3-3-3-3-7-7-7-7-7-7-7-7-3-3-3-3-3-3-3-3-----------|
G|-3-3-3-3-3-3-3-3-3-3-3-3-3-3-3-3-7-7-7-7-7-7-7-7-3-3-3-3-3-3-3-3-----------|
C|-----------------3-3-3-3-3-3-3-3-7-7-7-7-7-7-7-7-3-3-3-3-3-3-3-3-----------|

D|---------------------------------------------------------------------------|
A|---------------------------------------------------------------------------|
F|------------------------------------5--------------------------------------|
C|-7-7-7-7-7-7-7-7-3-3-3-3-3-3-3-3----5--------------------------------------|
G|-7-7-7-7-7-7-7-7-3-3-3-3-3-3-3-3----3--------------------------------------|
C|-7-7-7-7-7-7-7-7-3-3-3-3-3-3-3-3-------------------------------------------|


************************************

| x   Dead note
| g   Grace note
| (n) Ghost note
| h   Hammer-on
| p   Pull-off
| r   Release
| >   Accented note
| t   Tapping
| b   Bend
| br  Bend release
| pb  Pre-bend
| pbr Pre-bend release
| /   Slide up
| \   Slide down
| ~   Vibrato
| s   Slap
| P   Pop
| PM  Palm mute
| TR  Trill
| N   Tremolo

************************************
Suggest correction
Give kudos to tab author, rate the tab!
1 2 3 4 5
comments
print report bad tab
1 comment total.
0 reply
jacob_moss 101 Nov 16, 2016 12:12 AM

Lead or Rhythm?

guest
You may want to rate the tab now too:
select rating
Wanna post a correction for this tab? Suggest correction