Oops, an error
Loading. Please wait.

Why Walk On Water When Weve Got Boats Bass Tab

version 1
version 1

Whole song

Interactive

1,180 views 3 this week
no commentswrite comment
1 2 3 4 5
excellent!
x 3
add to favorites
launch autoscroll
font size
0
reset
guitar tuner
Tab Pro tools
  • play this tab
  • loop segment
  • change instrument
  • show fretboard
  • metronome
×
Best way to learn
"Why Walk On Water When Weve Got Boats"
Autoscroll
slow
fast
+/-
esc
set tempo
stop
Contributor
Tuning
C G C F A D
F:---------------------------|
C:---------------------------|
G:--------------5~---------0-|
C:---------------------------|

F:-------------------------------------|
C:-------------------------------------|
G:-55555555-55555555-11111111-00000000-| x4
C:-------------------------------------|

F:-------------------------------------|
C:-------------------------------------|
G:-11111111-33333333-55555555-55553333-| x2 
C:-------------------------------------|

F:------------------------|
C:------------------------|
G:-1~11-1~11-3~33-0---0---|
C:------------------------|

F:---------------------------------|
C:---------------------------------|
G:-------6-5-5-5-0-1-1-1-1-1-------|
C:-0-0-0---------------------4-4-4-|

F:---------------------------------|
C:---------------------------------|
G:-------6-5-5-5-0-1-1-1-0-4-4-4-4-|
C:-0-0-0---------------------------|

F:-----------------|     ----------|
C:-----------------|     ----------|
G:-----------------| x3  ----------|
C:-0-0-0-0-0-0-0-0-|     -0--------|

F:---------------------------------|
C:---------------------------------|
G:-------6-5-5-5-0-1-1-1-1-1-------| -|
C:-0-0-0---------------------4-4-4-|  |
                                      | x4
F:---------------------------------|  |
C:---------------------------------| -|
G:-------6-5-5-5-0-1-1-1-0-4-4-4-4-|
C:-0-0-0---------------------------|

F:-----------------|
C:-----------------|
G:-----------------|
C:-0-------0~------|
comments
We did not receive enough feedback on this tab! Please rate:
print report bad tab
1 2 3 4 5
I want to post or [tab]
guest
You may want to rate the tab now too:
select rating
Please do not post tabs as comments. Select "correction" instead!