Oops, an error
Loading. Please wait.

You Already Know What You Are Bass Tab

version 1
version 1

Whole song

Interactive

2,912 views 3 this week
no commentswrite comment
1 2 3 4 5
x 4
add to favorites
launch autoscroll
font size
0
reset
guitar tuner
Autoscroll
slow
fast
+/-
esc
set tempo
stop
Help us to improve Ultimate-Guitar.com Take our survey!
×
Author
             A DAY TO REMEMBER            -           YOU ALREADY KNOW WHAT YOU ARE
INTRO
guitar only.

BREAKDOWN 1
|-------------------------------------------------------------------------------|
|-------------------------------------------------------------------------------| x2
|--------------------------(x2)-------------------------------------------------|let ring 2nd time
|--0-00--000-0-00--000000--------1-11--111-1-11--111111-4-44--444-4-44--444444--|

BRIDGE
|-----------------------|
|--0~-------------------|
|--0~-------------------|
|--0~---111444----------|

VERSE
|------------------------------------------------------------------------------------------------|
|------------------------------------------------------------------------------------------------|
|--5555555555555555------------------------------------------------------------------------------|
|-------------------3333333333333333-1010101010101010-88888888-10101010101010101010101010101010--|
                                 tens                                                       ^ tens

|------------------------------------------------------------------------------------------|
|------------------------------------------------------------------------------------------|
|--5555555555555555------------------------------------------------------------------------|
|-------------------3333333333333333-1010101010101010-88888888-55555555--555-555-555-555---|

BREAKDOWN 2
|--------------------------------------------------------------------|
|--------------------------------------------------------------------|
|--------------------------5-----------------------------------------|
|--000-000-000-000-000-000---0-87-000-000-000-000-000-000-00000000---|

|----------------------------------------|
|----------------------------------------|   x2
|----------------------------------------|   let all ring besides the doubles in
|--00-000--000-00-00-00-000--000-00-00---|   the middle the 2nd time

END
|-----------------------------------------|
|-----------------------------------------|
|-----------------------------------------|
|------------------1010101010101010---0---|
BRUTAL.                      ^ tens


TABBED BY LURKNASTY
Suggest correction
comments
print report bad tab
guest
You may want to rate the tab now too:
select rating
Wanna post a correction for this tab? Suggest correction