Oops, an error
Loading. Please wait.

You Already Know What You Are Tab

version 1
version 1

Whole song

Interactive

25,687 views 9 this week
8 commentsread comments
1 2 3 4 5
excellent!
x 7
add to favorites
launch autoscroll
font size
0
reset
how to read this tab
guitar tuner
Autoscroll
slow
fast
+/-
esc
set tempo
stop
Help us to improve Ultimate-Guitar.com Take our survey!
×
Author
Intro
(guitar 1)
D|--------------------------------|
A|--------------------------------|
F|--------------------------------|
C|--------------------------------|
G|--------------------------------|
C|-11144444-----------------------|


Breakdown 1 (both guitars)
D|--------------------------------------------------------------------------|
A|--------------------------------------------------------------------------|
F|--------------------------------------------------------------------------|
C|--------------------------------------------------------------------------|x2
G|-0-00--000-0-00--000000--x2-1-11--111-1-11--111111-4-44--444-4-44--444444-|
C|-0-00--000-0-00--000000-----1-11--111-1-11--111111-4-44--444-4-44--444444-|
   . ..  ... . ..  ......     . ..  ... . ..  ...... . ..  ... . ..  ......

(guitar 1)
D|--------------------------------|
A|--------------------------------|
F|--------------------------------|
C|--------------------------------|
G|-0~---111444--------------------|
C|-0~---111444--------------------|

verse
(guitar 1)                                                      1st Time
D|-------------------------------------------------|------------------------|
A|-------------------------------------------------|------------------------|
F|-777777777777777714141414141414141414141414141414|-12---10---12---14------|
C|-------------------------------------------------|---x8---x8---x8---x8----|
G|-555555555555555512121212121212121212121212121212|-10---8----10---12------|
C|-------------------------------------------------|------------------------|

  2nd Time
D|--------------------------------|
A|--------------------------------|
F|-12---10---12-------------------|
C|---x8---x8---x8-----------------|
G|-10---8----10---555-555-555-555-|
C|----------------555-555-555-555-|
                  ... ... ... ...
 (guitar 2)                           1st time
D|----------------------------------|---------------------|
A|----------------------------------|---------------------|
F|-7777777777777777-----------------|---------------------|
C|-7777777777777777-----------------|---------------------|
G|-55555555555555553333333333333333-|-10-x8--8-x8--10-x16-|
C|-----------------3333333333333333-|-10-----8-----10-----|

  2nd time
D|------------------------------------|
A|------------------------------------|
F|------------------------------------|
C|------------------------------------|
G|-10-x8--8-x8--5-x8-555-555-555-555--|
C|-10-----8-----5----555-555-555-555--|
                     ... ... ... ...

Breakdown 2 (guitar 1)
D|-----------------------------------------------------------------|
A|-----------------------------------------------------------------|
F|-------------------------7---------------------------------------|
C|-------------------------7---------------------------------------|
G|-000-000-000-000-000-000-5-0-87-000-000-000-000-000-000-00000000-|
C|-000-000-000-000-000-000---0-87-000-000-000-000-000-000-00000000-|

 (guitar 2)
D|-------------------------------------|
A|-------------------------------------|
F|-------------------------------------|
C|-------------------------------------|
G|-000-000-000-000-000-000-00000000-x2-|
C|-000-000-000-000-000-000-00000000----|

Breakdown 3 (continues from breakdown 2)
 (both guitars)
D|-------------------------------------|
A|-------------------------------------|
F|-------------------------------------|
C|-------------------------------------| x2
G|-00-000--000-00-00-00-000--000-00-00-|
C|-00-000--000-00-00-00-000--000-00-00-|
   .. ...  ... .. .. .. ...  ... .. ..
Outro
D|---------------------------|
A|---------------------------|
F|-7-------------------------|
C|-7-x8----------------------|
G|-5----8-x8--10-x8--0-------|
C|------8-----10-----0-------|
Suggest correction
What's this?
You can suggest a correction to this tab. Community and Mods will review your correction and vote to approve or reject it.
comments
print report bad tab
8 comments total. Showing first comments.
+1 reply
lastroseonstage 41 wrote on January 27 2009, 03:55 am

"verse" - play chords x 8 each
D|--------------------------------------|
A|--------------------------------------|
F|-7-10-5-6-----------------------------|
C|--------------------------------------|
G|-5-8--3-4-----------------------------|
C|--------------------------------------|

Outro
D|------------------------------|
A|------------------------------|
F|-7----3-----6------7~---------|
C|--x4-----x4---x8----end on----|
G|-5----1-----4------5~---------|
C|------------------------------|

-2 reply
lastroseonstage 41 wrote on January 27 2009, 03:55 am

"verse" - play chords x 8 each
D|--------------------------------------|
A|--------------------------------------|
F|-7-10-5-6-----------------------------|
C|--------------------------------------|
G|-5-8--3-4-----------------------------|
C|--------------------------------------|

Outro
D|------------------------------|
A|------------------------------|
F|-7----3-----6------7~---------|
C|--x4-----x4---x8----end on----|
G|-5----1-----4------5~---------|
C|------------------------------|

+2 reply
elleild 420 wrote on November 21 2009, 08:11 am

You really shouldnt do corrections if they are wrong...

guest
You may want to rate the tab now too:
select rating
Please do not post tabs as comments. Select "correction" instead!