Oops, an error
Loading. Please wait.

You Be Tails Ill Be Sonic Bass Tab

version 1
version 1

Whole song

Interactive

3,178 views 9 this week
no commentswrite comment
1 2 3 4 5
3 more votes to show rating
add to favorites
launch autoscroll
font size
0
reset
guitar tuner
Autoscroll
slow
fast
+/-
esc
set tempo
stop
Help us to improve Ultimate-Guitar.com Take our survey!
×
Author
Difficulty
Everyone who wants to play metal or is interested should go out and buy themselves a 5-string


You Be Tails, Ill Be Sonic
Tuning: Standard

Intro
G||----------------------------------------------------------------------------------|
D||----------------------------------------------------------------------------------|
A||----------------------------------------------------------------------------------|
E||----------------------------------------------------------------------------------|
B||----------------------------------------------------------------------------------|

Verse
G||--------------------------------------|
D||--------------------------------------|
A||--------------------------------------|
E||--------------------------------------|
B||-00-0-0-00-0-0-00-0-0-00-0-0-00000000-|

G||---------------------------------------|
D||---------------------------------------|
A||---------------------------------------|
E||---------------------------------------|
B||-00-0-0-00-0-0-00-0-00-8-8-00-7-7-00-7-|

G||---------------------------------------|
D||---------------------------------------|
A||---------------------------------------|
E||---------------------------------------|
B||-00-0-0-00-0-0-00-0-00-8-8-00-7-7-00-7-|

G||--------------------------------------|
D||--------------------------------------|
A||--------------------------------------|
E||--------------------------------------|
B||-00-0-0-00-0-0-00-0-0-00-0-0-00000000-|

G||---------------------------------------|
D||---------------------------------------|
A||---------------------------------------|
E||---------------------------------------|
B||-00-0-0-00-0-0-00-0-00-8-8-00-7-7-00-7-|

G||---------------------------------------|
D||---------------------------------------|
A||---------------------------------------|
E||---------------------------------------|
B||-00-0-0-00-0-0-00-0-00-8-8-00-7-7-00-7-|

Pre-Chorus
G||---------------------------------------------------|
D||---------------------------------------------------|
A||---------------------------------------------------|
E||---------------------------------------------------|
B||-88888888-77777777-0000000-33333333-88888888-77777-|

Chorus
G||-------------------------------------------------------------------------|
D||-------------------------------------------------------------------------|
A||-------------------------------------------------------------------------|
E||-------------------------------------------------------------------------|
B||-00000008-88888883-33333337-7777777x-00000008-88888883-33333337-7777777x-|

G||-------------------------------------------------------------------------|
D||-----------------------------------------------------------4-----4-----4-|
A||-------------------------------------------------------------2-----2-----|
E||------------------5555555-------5-555--------------------3-----3-----3---|
B||-88888883-3333333---------0-00---------88888887-773-333------------------|

Verse
G||--------------------------------------|
D||--------------------------------------|
A||--------------------------------------|
E||--------------------------------------|
B||-00-0-0-00-0-0-00-0-0-00-0-0-00000000-|

G||---------------------------------------|
D||---------------------------------------|
A||---------------------------------------|
E||---------------------------------------|
B||-00-0-0-00-0-0-00-0-00-8-8-00-7-7-00-7-|

G||---------------------------------------|
D||---------------------------------------|
A||---------------------------------------|
E||---------------------------------------|
B||-00-0-0-00-0-0-00-0-00-8-8-00-7-7-00-7-|

G||--------------------------------------------------------------------------------|
D||------------------------------------------------------------------4-----4-----4-|
A||--------------------------------------------------------------------2-----2-----|
E||----------------------------------------------------------------3-----3-----3---|
B||-0--000000--0--000000--00--00-0-0-00-0--0--000000--0--000000--0-----------------|

G||------------------------------------------------------------------------|
D||----------------------------------------------------------4-----4-----4-|
A||------------------------------------------------------------2-----2-----|
E||--------------------------------------------------------3-----3-----3---|
B||-0--000000--0--000000--00--0-0--0--000000--0--000000--0-----------------|

Pre-Chorus
G||---------------------------------------------------|
D||---------------------------------------------------|
A||---------------------------------------------------|
E||---------------------------------------------------|
B||-88888888-77777777-0000000-33333333-88888888-77777-|

Chorus
G||-------------------------------------------------------------------------|
D||-------------------------------------------------------------------------|
A||-------------------------------------------------------------------------|
E||-------------------------------------------------------------------------|
B||-00000008-88888883-33333337-7777777x-00000008-88888883-33333337-7777777x-|

G||--------------------------------------------------------|
D||--------------------------------------------------------|
A||--------------------------------------------------------|
E||------------------5555555-------5-555-------------------|
B||-88888883-3333333---------0-00---------88888887-773-333-|

Bridge
G||---|
D||---|
A||---|
E||---|
B||0~-|

G||----------------|
D||----------------|
A||----------------|
E||----------------|
B||-00-4-001-001h4-|

G||---|
D||---|
A||---|
E||---|
B||0~-|

Breakdown
G||---------------------------------------------------------------|
D||---------------------------------------------------------------|
A||---------------------------------------------------------------|
E||-----------------------7-----8-8-------------------------------|
B||-4-0-0-0--0-0-0--0-0-0---0-0-----0-0-0--0-0-0--0-0-0-1-0-0-4-4-|

G||---------------------------------------|
D||---------------------------------------|
A||---------------------------------------|
E||---------------------------------------|
B||-00-0-0-00-0-0-00-0-0-00-0-0-xx-xx-xxx-|

G||---------------------------------------|
D||---------------------------------------|
A||---------------------------------------|
E||---------------------------------------|
B||-00-0-0-00-0-0-00-0-00-8-8-00-7-7-00-7-|

G||--------------------------------------|
D||--------------------------------------|
A||--------------------------------------|
E||--------------------------------------|
B||-00-0-0-00-0-0-00-0-0-00-0-0-00000000-|

G||---------------------------------------|
D||---------------------------------------|
A||---------------------------------------|
E||---------------------------------------|
B||-00-0-0-00-0-0-00-0-00-8-8-00-7-7-00-7-|

Interlude
G||----------------------------------------------------------------------------------|
D||----------------------------------------------------------------------------------|
A||----------------------------------------------------------------------------------|
E||----------------------------------------------------------------------------------|
B||----------------------------------------------------------------------------------|

Chorus
G||-----------------------------------------------------|
D||-----------------------------------------------------|
A||-----------------------------------------------------|
E||-----------------------------------------------------|
B||-33333337-7777777-00000008-88888883-33333337-7777777-|

G||--------------------------------------------------------|
D||--------------------------------------------------------|
A||--------------------------------------------------------|
E||------------------5555555-------5-555-------------------|
B||-88888883-3333333---------0-00---------88888887-773-333-|

Outro
G||-------------------------------------------------------------------------|
D||-------------------------------------------------------------------------|
A||-------------------------------------------------------------------------|
E||-------------------------------------------------------------------------|
B||-00000000-88888888-33333333-77777777-00000000-88888888-33333333-77777777-|

G||----|
D||----|
A||----|
E||----|
B||-0~-|
Suggest correction
Give kudos to tab author, rate the tab!
1 2 3 4 5
comments
print report bad tab
guest
You may want to rate the tab now too:
select rating
Wanna post a correction for this tab? Suggest correction