Oops, an error
Loading. Please wait.

You Be Tails Ill Be Sonic Tab

version 2
version 2

Whole song

Interactive

9,859 views 39 this week
no commentswrite comment
1 2 3 4 5
excellent!
x 1
add to favorites
launch autoscroll
font size
0
reset
how to read this tab
guitar tuner
Tab Pro tools
  • play this tab
  • loop segment
  • change instrument
  • show fretboard
  • metronome
Autoscroll
slow
fast
+/-
esc
set tempo
stop
Contributor
SONG: YOU BE TAILS, I'LL BE SONIC
BAND: A DAY TO REMEMBER
ALBUM: WHAT SEPARATES ME FROM YOU
TUNING: DROP B (B F# B E G# C#) or (B Gb B E Ab Db)

please rate and comment

INTRO:
|--------------------------------------|
|--------------------------------------|
|--------------------------------------|
|--------------------------------------|(x2)
|-00-0-0-00-0-0-00-0-0-00-0-0-00000000-|
|-00-0-0-00-0-0-00-0-0-00-0-0-00000000-|
  **     **     **     **     ********

VERSE: pt.1                       (guitar 1&2)  (verse fill)        
|--------------------------------------|--------------------|
|--------------------------------------|--------------------|
|--------------------------------------|--------------------|
|--------------------------------------|-00-8-8-00-7-7-00-7-|(x2)
|-00-0-0-00-0-0-00-0-0-00-0-0-00000000-|-00-8-8-00-7-7-00-7-|
|-00-0-0-00-0-0-00-0-0-00-0-0-00000000-|-00-8-8-00-7-7-00-7-|
  **     **     **     **     ********   **     **     **

then... guitar 1  pt. 2
|------------------------------------------|
|------------------------------------------|
|---10-10---10-10---10-10---10-10----------|
|-00-x--x-00-x--x-00-x--x-00-x--x----------|
|-00-8--8-00-8--8-00-8--8-00-8--8----------|
|-00------00------00------00------00000000-|
|  **      **      **      **      ********|
| guitar 2                                 |
|------------------------------------------|
|------------------------------------------|
|------------------------------------------|
|-00------00------00------00---------------|
|-00------00------00------00---------------|
|-00------00------00------00------00000000-|
  **      **      **      **      ********
guitar 1   pt.3
|--------------------------------------------|
|--------------------------------------------|
|---10-10---10-10---10-10----7-7----6-6----6-|
|-00-x--x-00-x--x-00-x--x-00-x-x-00-x-x-00-x-|
|-00-8--8-00-8--8-00-8--8-00-5-5-00-4-4-00-4-|
|-00------00------00------00-----00-----00---|
| **      **      **      **     **      **  |
|guitar 2                                    |
|--------------------------------------------|
|--------------------------------------------|
|--------------------------------------------|
|-00------00------00------00-8-8-00-7-7-00-7-|
|-00------00------00------00-8-8-00-7-7-00-7-|   
|-00------00------00------00-8-8-00-7-7-00-7-|
  **      **      **      **      **    **

<-----then play verse pt.1 again----->


PRE CHORUS: guitar 1
|----------------------------------------------------------------------|  |
|----------------------------------------------------------------------|  |
|--7-7-7-7-7-7-7-7-9-9-9-9-9-9-9-9-10-10-10-10-10-10-10-10-17-17-17-17-|  |
|--x-x-x-x-x-x-x-x-x-x-x-x-x-x-x-x--x--x--x--x--x--x--x--x--x--x--x--x-|  |
|--5-5-5-5-5-5-5-5-7-7-7-7-7-7-7-7--8--8--8--8--8--8--8--8-15-15-15-15-|  |
|----------------------------------------------------------------------|  |
|                                                                         |
|-----------------------------|                                           |
|-----------------------------|                                           |
|-14-14-14-14-7-7-7-7-9-9-9-9-|                                           |
|--x--x--x--x-x-x-x-x-x-x-x-x-|                                           |
|-12-12-12-12-5-5-5-5-7-7-7-7-|                                           |
|-----------------------------|                                           |
|    guitar 2                                                             |
|-------------------------------------------------------------------------|
|-------------------------------------------------------------------------|
|-------------------------------------------------------------------------|
|-8-8-8-8-8-8-8-8-7-7-7-7-7-7-7-7-0-0-0-0-0-0-0-0-3-3-3-3-8-8-8-8-7-7-7-7-|
|-8-8-8-8-8-8-8-8-7-7-7-7-7-7-7-7-0-0-0-0-0-0-0-0-3-3-3-3-8-8-8-8-7-7-7-7-|
|-8-8-8-8-8-8-8-8-7-7-7-7-7-7-7-7-0-0-0-0-0-0-0-0-3-3-3-3-8-8-8-8-7-7-7-7-|

CHORUS: guitar 1&2 pt.1  
|-----------------------------------------------------------------|
|-----------------------------------------------------------------|
|-----------------------------------------------------------------|
|-0-0-0-0-0-0-0-0-8-8-8-8-8-8-8-8-3-3-3-3-3-3-3-3-7-7-7-7-7-7-7-7-|(x2)
|-0-0-0-0-0-0-0-0-8-8-8-8-8-8-8-8-3-3-3-3-3-3-3-3-7-7-7-7-7-7-7-7-|
|-0-0-0-0-0-0-0-0-8-8-8-8-8-8-8-8-3-3-3-3-3-3-3-3-7-7-7-7-7-7-7-7-|
      pt.2
|-------------------------------------------------------------------------|
|-------------------------------------------------------------------------|
|-------------------------------------------------------------------------|
|-7-7-7-7-7-7-7-7-3-3-3-3-3-3-3-3-10-10-10-10-10-10-10-10-8-8-8-8-7-7-7-7-|
|-7-7-7-7-7-7-7-7-3-3-3-3-3-3-3-3-10-10-10-10-10-10-10-10-8-8-8-8-7-7-7-7-|
|-7-7-7-7-7-7-7-7-3-3-3-3-3-3-3-3-10-10-10-10-10-10-10-10-8-8-8-8-7-7-7-7-|
then....s
not sure about this part...
|--------------------------|
|--------------------------|
|--------------------------|
|--------------------------|
|----12-------12--------12-|
|-8-----8--8------8--8-----|
         PICKSLIDE 

 then play the VERSE

BRIDGE: (play entire bridge twice)
|-----------------------------------------------------|
|-----------------------------------------------------|
|-----------------------------------------------------|
|-----------------------------------------------------|
|-----------------------------------------------------|
|-0--000000-000000-0-0-----------0--000000-000000-0-0-|
| *  ****** ****** * *           * ****** ****** * *  |         
|guitar 2                                             |
|-----------------------------------------------------|
|-----------------------------------------------------|
|-----------------------------------------------------|
|-----------------------------------------------------|
|-----------------------------------------------------|
|---------------------0-0-000000----------------------|
 then...              * * ******
 guitar 1
|------------------------------------------------------|
|------------------------------------------------------|
|------------------------------------------------------|
|------------------------------------------------------|
|----12-------12--------12-----------------------------|
|-8-----8--8------8--8---------------------------------|
|                                                      |
|guitar 2                                              |
|------------------------------------------------------|
|------------------------------------------------------|
|------------------------------------------------------|
|------------------------------------------------------|
|------------------------------------------------------|
|----------------------------pickslide////////////////-|

PRE CHORUS
CHORUS

BREAKDOWN: pt.1                                       fill
|-----------------------------------------------|---------------|
|-----------------------------------------------|---------------|
|-----------------------------------------------|---------------|
|-----------------------------------------------|-004-001-004h1-|
|-----------------------------------------------|-004-001-004h1-|
|-7b-000-000-000-000-000-000-8-0-7b-000-000-000-|-004-001-004h1-|
|    *** *** *** *** *** ***   *    *** *** *** **  **  **      |  
|guitar 2                                                       |
|-----------------------------------------------|---------------|
|-----------------------------------------------|---------------|
|-----------------------------------------------|---------------|
|-0~~~~~~~~~~~~~~~~~~~~~~~~~~~~~~~~~~~~~~~~~~~~~|-004-001-004h1-|
|-0~~~~~~~~~~~~~~~~~~~~~~~~~~~~~~~~~~~~~~~~~~~~~|-004-001-004h1-|
|-0~~~~~~~~~~~~~~~~~~~~~~~~~~~~~~~~~~~~~~~~~~~~~|-004-001-004h1-|
repeat BREAKDOWN pt.1

|----------------------------------|
|----------------------------------|
|----------------------------------|
|----------------------------------|
|------------------------------6-6-|
|-0--0-0-0--0-0-0--0-0-0--5-00-----|
|    * * *  * * *  * * *    **     |
|guitar 2                          |
|----------------------------------|
|----------------------------------|
|----------------------------------|
|----------------------------------|
|-0--0-0-0--0-0-0--0-0-0--0--0-0-0-|
|-0--0-0-0--0-0-0--0-0-0--0--0-0-0-|
  *  * * *  * * *  * * *  *  * * * 
guitar 1
|----------------------------------|
|----------------------------------|
|----------------------------------|
|----------------------------------|
|----------------------------------|
|-0--0-0-0--0-0-0--0-0-0--5-00-44--|
| *  * * *  * * *  * * *    **     |
|guitar 2                          |
|----------------------------------|
|----------------------------------|
|----------------------------------|
|----------------------------------|
|-0--0-0-0--0-0-0--0-0-0--0--0-0-0-|
|-0--0-0-0--0-0-0--0-0-0--0--0-0-0-|

VERSE
CHORUS
OUTRO (same as chorus pt.2) for guitar 2

OUTRO guitar 1
|------------------8-8-8-8-5-5-5-5--|------------------8-8-8/10-5-5-5-5--|
|--6/8-8-8-8\6-6-6------------------|--6/8-8-8-8\6-6-6-------------------|
|-----------------------------------|------------------------------------|
|-----------------------------------|------------------------------------|
|-----------------------------------|------------------------------------|
|-----------------------------------|------------------------------------|


|-----------------8-8-8-8-5-5-5-5--|--3---3---3---3---0---0---0---0---------|
|-6/8-8-8-8\6-6-6------------------|----6---6---6---6---6---6---6-----------|
|----------------------------------|--------------------------------5-5/7~--|
|----------------------------------|----------------------------------------|
|----------------------------------|----------------------------------------|
|----------------------------------|----------------------------------------|




KEY: *  = palm mute
     h  = hammer on
     p  = pull off
     b  = bend



<-----------------------------------LYRICS---------------------------------->
I'm a mess
that's the best way to describe it
having no time for myself's the only way i can fight it
when i'm alone
it's like i'm staring into the mirror
don't know the person inside and that's never been any clearer
i miss your family and i miss all our friends
if you had it to do over would you do it over again?
'cause i would
this meant something more to me 
there's a hole in my heart where you used to be

i still wish you the best of luck, baby,
and dont go thinking that this was a waste of time
i couldnt forget you if i tried

you killed what was left of the good in me
im tired so let me be broken
look down at the mess that's in front of me
no other words need be spoken
ive got nobody else to blame
though i tried
kept all our past mistakes held inside
i'll live with regret for my whole life

i confess
i brought this all on myself
condemned to suffer alone like there's nobody else
when you're gone it's like a whole part of me's missing
so i'll keep living the lie
and just hope that youre listening

i tried to make us a life here
but our foundation was built on sand
no time to run until the damage was done 
i never had the upper hand

i still wish you the best of luck, baby,
and dont go thinking that this was a waste of time
i couldnt forget you if i tried

you killed what was left of the good in me
im tired so let me be broken
look down at the mess that's in front of me
no other words need be spoken
ive got nobody else to blame
though i tried
kept all our past mistakes held inside
i'll live with regret for my whole life

all the things you love are all the things i HATE 
how did we get here in the first place?

i play it cool but it's hard to be 
all my trust is slowly fading inside of me
over what?
there can't be anymore progress
i know our fate
only thing that can heal this is time and space

you killed what was left of the good in me
im tired so let me be broken
look down at the mess that's in front of me
no other words need be spoken
ive got nobody else to blame
though i tried
kept all our past mistakes held inside
i'll live with regret for my whole life

for my whole life

END.
comments
We did not receive enough feedback on this tab! Please rate:
print report bad tab
1 2 3 4 5
I want to post or [tab]
guest
You may want to rate the tab now too:
select rating
Please do not post tabs as comments. Select "correction" instead!