Oops, an error
Loading. Please wait.

You Had Me At Hello Tab

version 2
version 2
73,584 views 6 this week
5 commentsread comments
1 2 3 4 5
accurate
x 23
add to favorites
launch autoscroll
font size
0
reset
how to read this tab
guitar tuner
Tab Pro tools
  • play this tab
  • loop segment
  • change instrument
  • show fretboard
  • metronome
×
Best way to learn
"You Had Me At Hello"
Autoscroll
slow
fast
+/-
esc
set tempo
stop
Contributor
You Had me At Hello by A Day to Remember
Tuning: Standard

Intro (4x)

Guitar 1

e|------5------5-----3------2-----2------------|
B|----3------3-----3------3----3-----3---------|
G|---------------------------------------------|
D|-0------0------0------0----0-----------------|
A|---------------------------------------------|
E|---------------------------------------------|

Intro 2 (2x)

Guitar 1

e|--0---0---0--------0---0-0--0------|
B|--3---3---3--------3---3-3--3------|
G|--2---2---2--------2---2-2--2------|
D|--0---0---0--------0---2-4--0------|
A|--0---2---x--------2---0-0--x------|
E|--x---x---3--------x---x-x--3------|

Guitar 2  (emphasis on high e notes)

e|--5---3---5--------0---2-3--5----|
B|--3---3---3--------3---3-3--3----|
G|--2---2---2--------2---2-2--2----|
D|---------------------------------|
A|---------------------------------|
E|---------------------------------|


Verse

Guitar 1 (2x)

e|--0---0---0--------0---0-0--0------|
B|--3---3---3--------3---3-3--3------|
G|--2---2---2--------2---2-2--2------|
D|--0---0---0--------0---2-4--0------|
A|--0---2---x--------2---0-0--x------|
E|--x---x---3--------x---x-x--3------|

Guitar 2  (2x)  (emphasis on high e notes)

e|--5---3---5--------0---2-3--2--0------|
B|--3---3---3--------3---3-3--3--3------|
G|--2---2---2--------2---2-2--2--2------|
D|--------------------------------------|
A|--------------------------------------|
E|--------------------------------------|

Pre-Chorus

Guitar 1  (2x)

e|-----10----10-----10p9----9-----9-----5-------5-----5-----5------5----|
B|---7-----7------7-------------7-----3------3------3-----3-----3----3--|
G|----------------------------------------------------------------------|
D|-0-----0------0--------0----0-----0------0------0-----0-----0---------|
A|----------------------------------------------------------------------|
E|----------------------------------------------------------------------|

e|-----10----10---------12------12---------(17)---17----15-------14---15---14----|
B|---7-----7------7---7------7-------7-------------------------------------------|
G|---------------------------------------11-----11---------11--------------------|
D|-0-----0------0---0------0-------0---0------0-------0--------0----0----0-----0-|
A|-------------------------------------------------------------------------------|
E|-------------------------------------------------------------------------------|

2nd time through- end on (17)

Guitar 2

e|------------2------2-------------2-----2-------------------------------------|
B|-------3-------3------------3------3-----------3-----3-----3-----3------3----|
G|-----------------------------------------------------------------------------|
D|---------------------------------------------0-----0-----0-----0-----0----0--|   2X
A|--2-2----2-------2------0-0---0------0---------------------------------------|
E|-----------------------------------------(3)-----3-----3-----3-----3---------|

e|------------2------2-------------2-----2-------------------------------------|
B|-------3-------3------------3------3-----------3-----3-----3-----3------3----|
G|-----------------------------------------------------------------------------|
D|---------------------------------------------0-----0-----0-----0-----0----0--|   1x
A|--2-2----2-------2------4-4---4------4---------------------------------------|
E|-------------------------------------------3-----3-----3-----3-----3---------|

e|------------2------2-------------2-----2--0---|
B|-------3-------3------------3------3------3---|
G|------------------------------------------2---|  hold chord
D|------------------------------------------0---|
A|--2-2----2-------2------0-0---0------0----x---|
E|------------------------------------------3---|


Chorus

Guitar 1

e|--0-----------0------0-------------0-------|
B|--3-----------3------3-------------3-------|
G|--2-----------2------2-------------2-------|
D|--0-----------0------0-------------0-------|
A|--0-----------x------2-------------x-------|
E|--x-----------3------x-------------3-------|

Guitar 2

e|--5----3-2----3------0--2--3-2-----0---x-x-x-x-x-x-x---------|
B|--3----3-3----3------3--3--3-3-----3---5-3-5-7-3-5-3---------|
G|--2----2-2----2------2--2--2-2-----0---0-0-0-0-0-0-0---------|
D|-------------------------------------------------------------|
A|-------------------------------------------------------------|
E|-------------------------------------------------------------|

Guitar 1
e|--0-----------0------0-------------0-------|
B|--3-----------3------3-------------3-------|
G|--2-----------2------2-------------2-------|
D|--0-----------0------0-------------0-------|
A|--0-----------x------2-------------x-------|
E|--x-----------3------x-------------3-------|

e|--5----3-2----0------0--2--3-2-----0-x-x-x-x-x-x-x-x-x-0----|
B|--3----3-3----3------3--3--3-3-----3-5-3-5-3-5-3-5-7-5-3----|
G|--2----2-2----2------2--2--2-2-----0-0-0-0-0-0-0-0-0-0-0----|
D|------------------------------------------------------------|
A|------------------------------------------------------------|
E|------------------------------------------------------------|

Post-Chorus

Guitar 1

e|----10-------9-------7-------5-----|
B|--7----7---7---7---5---5---3---3---|
G|-----------------------------------|   2X
D|-0-------0-------0-------0---------|
A|-----------------------------------|
E|-----------------------------------|


Guitar 2-- comes in after guitar 1 plays through once

e|---------0---2---3----5---3---2----2----------|
B|-----3--3---3---3----3---3---3----3-----------|
G|----2-----------------------------------------|
D|---0--0---0---0----0---0---0----0-------------|
A|----------------------------------------------|
E|----------------------------------------------|

Verse 2
Prechorus
Chorus


Bridge

Guitar 1  -  Palm Muted 4x then open 4x

e|-0-0-0----------|END ON -0-|
B|-3-3-3----------|       -3-|
G|-2-2-2----------|       -2-|
D|-0-0-0----------|       -0-|
A|-x-0-2----------|       -0-|
E|-3--------------|       -x-|

Guitar 2   Palm Muted 4x then play unison with guitar 1
e|----------5-------3------2-----------------|
B|--3-3-3-3---3-3-3--3-3-3---3-3-3-----------|
G|-------------------------------------------|
D|-------------------------------------------|
A|-------------------------------------------|
E|-------------------------------------------|

Chorus

Ending:

Guitar 1
e|-----10----10-----9----9-----9--------5------5------5-----5------5----|
B|---7-----7------7-----7-----7---7---3------3------3-----3-----3----3--|
G|----------------------------------------------------------------------|
D|-0-----0------0------0----0-------0------0------0-----0-----0---------|
A|----------------------------------------------------------------------|
E|----------------------------------------------------------------------|

e|-----10----10-----9----9-----9-----5~-|
B|---7-----7------7-----7-----7---7--3~-|
G|--------------------------------------|
D|-0-----0------0------0----0--------0~-|
A|--------------------------------------|
E|--------------------------------------|

Guitar 2
e|--0---0---0--------0---0-0--x--|
B|--3---3---3--------3---3-3--3~-|
G|--2---2---2--------2---2-2--2~-|
D|--0---0---0--------0---2-4--0~-|
A|--2---0---x--------2---0-0--x--|
E|--x---x---3--------x---x-x--3~-|

This is mostly right.. thanks adam who tabbed version 1 for the framework of 
this.. great song enjoy!
comments
print report bad tab
5 comments total. Showing first comments.
0 reply
Guitarman479 wrote on July 3 2009, 03:05 am

sweet tab man. keep up the good work.

-1 reply
K.L.O.U.D. F-13 wrote on July 14 2009, 10:38 pm

excellent tab. hit up my tab. look up kaboom bomb its under misc.

+2 reply
coolcrf wrote on October 18 2009, 10:00 pm

this is much better than the other one.

I want to post or [tab]
guest
You may want to rate the tab now too:
select rating
Please do not post tabs as comments. Select "correction" instead!