Oops, an error
Loading. Please wait.

You Had Me At Hello Tab

version 4
version 4

Whole song

Interactive

5,359 views 1 this week
3 commentsread comments
1 2 3 4 5
please rate
add to favorites
launch autoscroll
font size
0
reset
how to read this tab
guitar tuner
Autoscroll
slow
fast
+/-
esc
set tempo
stop
Help us to improve Ultimate-Guitar.com Take our survey!
×
Author
Difficulty
intermediate
You Had Me At Hello
By A Day To Remember

Intro Tab (x4)

e|--------------5--------------5---------3---------------2--------------2---------------|
B|---------3-------3------3--------3---------3-----3--------3------3--------3-----------|
G|-----2--------------------------------------------------------------------------------|
D|-0------------------------------------------------------------------------------------|
A|--------------------------------------------------------------------------------------|
E|--------------------------------------------------------------------------------------|


Pre-Verse: D, A, G (x4)

Verse 1

D   A              G
I'm missing you so much, I'll see you die tonight
D    A               G
Just so I can get to you before the sun will rise
D   A                             G
I know these times are hard and I feel this too
D       A                  G
None of that ever seems to matter when I'm holding you


Pre-Chorus

(Ps: You kinda have to listen to the song to figure out how and when to play this part 
while singing. The little arrow ^ next the lyrics kinda guides you on where to start)

e|--10--10--10--10--10--10--10--10--9--9--9--9--9--9--9--9---------------------|
B|--7---7---7---7---7---7---7---7---7--7--7--7--7--7--7--7---------------------|
G|-----------------------------------------------------------------------------|
D|-----------------------------------------------------------------------------|
A|-----------------------------------------------------------------------------|
E|-----------------------------------------------------------------------------|

e|--5--5--5--5--5--5--5--5--5--5--5--5--5--5--5--5--|
B|--3--3--3--3--3--3--3--3--3--3--3--3--3--3--3--3--|
G|--0--0--0--0--0--0--0--0--0--0--0--0--0--0--0--0--|
D|--------------------------------------------------|
A|--------------------------------------------------|
E|--------------------------------------------------|
                              ^ And i'm wasting away, away from you...

e|--10--10--10--10--10--10--10--10--9--9--9--9--9--9--9--9---------------------|
B|--7---7---7---7---7---7---7---7---7--7--7--7--7--7--7--7---------------------|
G|-----------------------------------------------------------------------------|
D|-----------------------------------------------------------------------------|
A|-----------------------------------------------------------------------------|
E|-----------------------------------------------------------------------------|

e|--5--5--5--5--5--5--5--5--5--5--5--5--5--5--5--5--|
B|--3--3--3--3--3--3--3--3--3--3--3--3--3--3--3--3--|
G|--0--0--0--0--0--0--0--0--0--0--0--0--0--0--0--0--|
D|--------------------------------------------------|
A|--------------------------------------------------|
E|--------------------------------------------------|

e|--10--10--10--10--10--10--10--10--9--9--9--9--9--9--9--9---------------------|
B|--7---7---7---7---7---7---7---7---7--7--7--7--7--7--7--7---------------------|
G|-----------------------------------------------------------------------------|
D|-----------------------------------------------------------------------------|
A|-----------------------------------------------------------------------------|
E|-----------------------------------------------------------------------------|

e|--5--5--5--5--5--5--5--5--5--5--5--5--5--5--5--5--|
B|--3--3--3--3--3--3--3--3--3--3--3--3--3--3--3--3--|
G|--0--0--0--0--0--0--0--0--0--0--0--0--0--0--0--0--|
D|--------------------------------------------------|
A|--------------------------------------------------|
E|--------------------------------------------------|
                            ^ And I'm wasting away, away from you...

e|--10--10--10--10--10--10--10--10--9--9--9--9--9--9--9--9-----5---------------|
B|--7---7---7---7---7---7---7---7---7--7--7--7--7--7--7--7-----3---------------|
G|-------------------------------------------------------------0---------------|
D|-----------------------------------------------------------------------------|
A|-----------------------------------------------------------------------------|
E|-----------------------------------------------------------------------------|


Chorus

D A       G        D    A           G
What have I gotten into this time around
D A         G                           D      A                  G
I know that I had sworn I'd never trust anyone again but I didn't have to
                  D
You had me at hello.

Interlude

e|-------------------10-------------9-------------7-------------5--------------------|
B|-----------------------------------------------------------------------------------|
G|------7--------7------------7--------------7-------------7-------------7-----------|
D|--0-------0------------0--------------0-------------0------------0-----------------|
A|-----------------------------------------------------------------------------------|
E|-----------------------------------------------------------------------------------|

e|--5------------10------------9-----------------7-------------5---------------------|
B|-----------------------------------------------------------------------------------|
G|----------7-------------7----------------7--------------7---------------7----------|
D|-----0-------------0-------------0-----------------0--------------0----------------|
A|-----------------------------------------------------------------------------------|
E|-----------------------------------------------------------------------------------|

e|---5-------------10--------------9---------------7-------------5----------5---------|
B|------------------------------------------------------------------------------------|
G|-------------7--------------7---------------7-------------7------------7------------|
D|--------0-------------0--------------0--------------0-------------0-----------------|
A|------------------------------------------------------------------------------------|
E|------------------------------------------------------------------------------------|

e|----------------------10-----------9-----------7--------------5--------------------|
B|-----------------------------------------------------------------------------------|
G|-------7---------7-------------7-----------7------------7--------------7-----------|
D|--0---------0-------------0-----------0------------0-------------0-----------------|
A|-----------------------------------------------------------------------------------|
E|-----------------------------------------------------------------------------------|

e|--5-----------10-----------9--------------7-----------5------------5----------------|
B|------------------------------------------------------------------------------------|
G|----------7------------7-------------7-----------7------------7---------------------|
D|-----0------------0-----------0-------------0------------0--------------------------|
A|------------------------------------------------------------------------------------|
E|------------------------------------------------------------------------------------|

Verse 2

D    A            G
I've never seen a smile that can light the room like yours
D    A                 G
It's simply radiant, I feel more with every day that goes by
D A                       G
I watch the clock to make my timing just right
D             A
Would it be okay?
              G (Let it ring)
Would it be okay if I took your breath away?

[Repeat Pre-Chorus and Chorus]

Bridge (Palm Mute)

(Kinda difficult to pull off, but i'm pretty sure it's correct)

e|--------------------------------------------------|
B|--------------3-----------------------2-----------|
G|--2--2--2--2--2--2--2--2--2--2--2--2--2--2--2--2--|
D|--0--0--0--0--0--0--0--0--2--2--2--2--2--2--2--2--|
A|--0--0--0--0--0--0--0--0--0--0--0--0--0--0--0--0--|
E|--------------------------------------------------|
    ^ You gave me butterflies at the mailbox... (you had me at hello)

e|--------------------------------------------------|
B|--------------3-----------------------3-----------|
G|--0--0--0--0--0--0--0--0--0--0--0--0--0--0--0--0--|
D|--0--0--0--0--0--0--0--0--0--0--0--0--0--0--0--0--|
A|--2--2--2--2--2--2--2--2--2--2--2--2--2--2--2--2--|
E|--------------------------------------------------| (x4)


D        A              G
You gave me butterflies (you are so cute) at the mailbox (you had me at hello) (x3)
D        A              G
You gave me butterflies (you are so cute) at the mailbox
                 D (let ring)
You had me at hello...

Chorus

D A       G        D    A           G
What have I gotten into this time around
D A         G                           D      A                  G
I know that I had sworn I'd never trust anyone again but I didn't have to
                  D A G
You had me at hello.
                  D A
You had me at hello
G (let ring)
You had me at hello [END]
Suggest correction
Give kudos to tab author, rate the tab!
1 2 3 4 5
comments
print report bad tab
3 comments total.
+1 reply
jBracken_2010 103 wrote on April 11 2011, 07:11 pm

Congratulations, you've created a decent tab. Way to go, much appreciated.

0 reply
Utada Rumiko 82 wrote on April 12 2011, 01:21 pm

You're welcome. It's not perfect, I know, but it was meant so that one person could play it and it would still sound pretty good.

0 reply
Utada Rumiko 82 wrote on April 12 2011, 01:25 pm

But yeah, thanks =3

guest
You may want to rate the tab now too:
select rating
Please do not post tabs as comments. Select "correction" instead!