Oops, an error
Loading. Please wait.

You Had Me At Hello Tab

version 5
version 5
80,273 views 180 this week
5 commentsread comments
1 2 3 4 5
excellent!
x 39
add to favorites
launch autoscroll
font size
0
reset
how to read this tab
guitar tuner
Tab Pro tools
  • play this tab
  • loop segment
  • change instrument
  • show fretboard
  • metronome
×
Best way to learn
"You Had Me At Hello"
Autoscroll
slow
fast
+/-
esc
set tempo
stop
Contributor
Difficulty
intermediate
(Tabbed by AbelHXC2)

This is the way I personally play it and I think it sounds alright. The strumming isn't 
too hard to figure out.

====INTRO====

e--------------------------------------------|
B------10-----10-----8-----7-----7-----------|
G----7------7------7-----7-----7---7---------|
D--0------0------0-----0-----0---------------|
A--------------------------------------------|
E--------------------------------------------|



====VERSE====

e--2----3----3----3----0--0--0--0--3----3---------|
B--3----3----3----3----3--3--3--0--3----3---------|
G--2----0----0----0----2--2--2--0--0----0---------|
D--0----2----0----0----0--2--4//5--0----0---------|
A--0----2----2----2----0--0--0--0--2----2---------|
E-------0----3----3----------------3----3---------|



====PRE-CHORUS====

e---------2---------------2------------------------------------------|
B-----3-----3---3-----3-----3---3-----3-----3-----3-----3-----3------|
G---------------------------------------------------------------0----|
D-----------------------------------0-----0-----0-----0-----0--------|
A-2-2---2-----2---0-0---0-----0--------------------------------------|
E---------------------------------3-----3-----3-----3-----3----------|

e---------2---------------2------------5----5------3-----2---3---2---|
B-----3-----3---3-----3-----3---3------------------------------------|
G--------------------------------------------------------------------|
D-----------------------------------0--------------------------------|
A-2-2---2-----2---0-0---0-----0--------------------------------------|
E---------------------------------3------3----3-3----3-3---3---3-----|

e---------2---------------2------------------------------------------|
B-----3-----3---3-----3-----3---3-----3-----3-----3-----3-----3------|
G---------------------------------------------------------------0----|
D-----------------------------------0-----0-----0-----0-----0--------|
A-2-2---2-----2---4-4---4-----4--------------------------------------|
E---------------------------------3-----3-----3-----3-----3----------|

e---------2---------------2---------2---|
B-----3-----3---3-----3-----3---3---3---|
G-----------------------------------0---|
D-----------------------------------0---|
A-2-2---2-----2---0-0---0-----0-----x---|
E---------------------------------3-3---|



====CHORUS====
*Note: I add little embellishments here aaaaaaaaaaaaaaaannnnnndddd here...just cuz;P
                                VVVVVV                            VVVVV

e--0----0----0----0--0--0--0-2-0202320----0----0----0----0--0--0--2---5-------|
B--3----3----3----3--3--0--3-3-3333333----3----3----3----3--3--0--3---3-------|
G--2----2----2----2--2--0--0-0-0000000----2----2----2----2--2--0--0---0-------|
D--0----0----0----2--4//5--0-0-0000000----0----0----0----2--4//5--0---0-------|
A--0----x----2----0--0--0--x-x-xxxxxxx----0----x----2----0--0--0--x---x-------|
E--x----3----x-------------3-3-3333333----x----3----0-------------3---3-------|



====BRIDGE 1====

e------10-------9-------7-------5----------|
B----7----7---7---7---5---5---3---3--------|
G------------------------------------------|
D--0--------0-------0-------0--------------|
A------------------------------------------|
E------------------------------------------|


====BRIDGE 2====
*Note: Palm mute first 4
times around then open after
   VVVVVVVVVVVVVVVVVV

e---0----0----0----0-----------0-------------|
B---3----3----3----3-----------3-------------|
G---2----2----2----2-----------2-------------|
D---0----0----0----0---(x8)----0-------------|
A---x----0----2----2-----------0-------------|
E---3----x----x----x-----------x-------------|



====ENDING====

e---0----0----0----0----0--0--0--0--0--------0------|
B---3----3----3----3----3--3--3--0--3--------3------|
G---2----2----2----2----2--2--2--0--2--------2------|
D---0----0----0----0----0--2--4--5--0--------0------|
A---2----0----x----x----2--0--0--0--x--------0------|
E---x----x----3----3----x-----------3--------x------|


====SONG OUTLINE====

INTRO x4
VERSE x4
PRE-CHORUS x1
CHORUS x1
BRIDGE 1 x4
VERSE x2
PRE-CHORUS x1
CHORUS x1
BRIDGE 2 x1
CHORUS x1
ENDING x1


Hope it sounds okay to you all.
comments
print report bad tab
5 comments total. Showing first comments. show 1 bad comment
+5 reply
tjdingy wrote on September 9 2013, 02:02 pm

this tab would be epic if it had the words in to keep place

+4 reply
TheNumber6 wrote on January 25 2014, 12:42 pm

the 12 string tab would be exactly the same as the 6....

I want to post or [tab]
guest
You may want to rate the tab now too:
select rating
Please do not post tabs as comments. Select "correction" instead!