Oops, an error
Loading. Please wait.

You Had Me At Hello Tab

version 6
version 6

Whole song

Interactive

1,469 views 1 this week
no commentswrite comment
1 2 3 4 5
3 more votes to show rating
add to favorites
launch autoscroll
font size
0
reset
how to read this tab
guitar tuner
Autoscroll
slow
fast
+/-
esc
set tempo
stop
Help us to improve Ultimate-Guitar.com Take our survey!
×
Author
Difficulty
intermediate
This is for the LEAD guitar, which in this song should be Tom Denney,
and this is meant to be acoustic. There's a rhythm guitar in this, but
I don't know it.

e-----10-----/---9---------5---------5----|
B---7---7-7----7--7-7----3--3-3----3--3-3-|
G--0-0---0----0-0--0----0-0--0----0-0--0--|
D-0----------0---------0---------0--------|
A-----------------------------------------|
E-----------------------------------------|


e-----10-----12-----12-----12---14-----14-----14--15-14-15-14-|
B---7---7-7----10-10--10-10--10---12-12--12-12--14------------|
G--0-0---0----------------------------------------------------|
D-0-----------------------------------------------------------|
A-------------------------------------------------------------|
E-------------------------------------------------------------|


e-----10-----/---9---------5---------5----|
B---7---7-7----7--7-7----3--3-3----3--3-3-|
G--0-0---0----0-0--0----0-0--0----0-0--0--|
D-0----------0---------0---------0--------|
A-----------------------------------------|
E-----------------------------------------|


e-----10-----12-----12-----12-----17---| Hold This Till The Post Chorus
B---7---7-7----10-10--10-10--10--------|
G--0-0---0-----------------------------|
D-0------------------------------------|
A--------------------------------------|
E--------------------------------------|
Suggest correction
Give kudos to tab author, rate the tab!
1 2 3 4 5
comments
print report bad tab
guest
You may want to rate the tab now too:
select rating
Wanna post a correction for this tab? Suggest correction