Oops, an error
Loading. Please wait.

You Had Me At Hello Tab

version 7
version 7
2,157 views 1 this week
1 commentread comment
1 2 3 4 5
please rate
add to favorites
launch autoscroll
font size
0
reset
how to read this tab
guitar tuner
Tab Pro tools
  • play this tab
  • loop segment
  • change instrument
  • show fretboard
  • metronome
×
Best way to learn
"You Had Me At Hello"
Autoscroll
slow
fast
+/-
esc
set tempo
stop
Contributor
Difficulty
intermediate
This is my first tab. I decided to make an account to tab it, Because I've been checking
Ultimate-Guitar for a while for this tab, & still nothing has come up 100% correct. So
I decided to go & try & learn it myself. This isn't 100% correct, But I'd give it a 95% 
Its pretty close I think t least. I appreciate the other tabs though, & give them credit,
Because I looked at them before learning it myself, & play some parts the same as them.

*I don't really have much of Guitar 2 besides the main strumming part.
*Towards the end there's a part I'm not sure how to do.

Here's my tab tho:

Intro (Picking) Repeat this 4 times:

Guitar 1

e|------5------5-----3------2------2------------|
B|----3------3-----3------3-----3-----3---------|
G|----------------------------------------------|
D|-0------0------0------0-----0-----------------|
A|----------------------------------------------|
E|----------------------------------------------|


Intro/Verse (Strumming) (0:12)

I'm giving you the Chords, Figure out the strumming pattern.

Guitar 1

e|--0---0---0---0------|
B|--3---3---3---3------|
G|--2---2---2---2------|
D|--0---0---0---0------|
A|--0---2---3---x------|
E|--x---x---x---3------|


Guitar 2

e|--5---3---2---3-----|
B|--3---3---3---3-----|
G|--2---2---2---2-----|
D|--0---0---0---0-----|
A|--0---0---0---0-----|
E|--x---x---x---x-----|


Verse (Picking) (0:56)

Guitar 1

e|-----10-------10-----9------9h10-----9-------|
B|---------------------------------------------|
G|---------------------------------------------|
D|-0-0-----0-0----0-0----0-0--------0----------|
A|---------------------------------------------|
E|---------------------------------------------|

e|-----5-----5-----5h7-----5-------------------|
B|---------------------------------------------|
G|---------------------------------------------|
D|-0-0---0-0---0-0------0----------------------|
A|---------------------------------------------|
E|---------------------------------------------|

e|----10----10---12---12---14---15---17---17---15---14---15--14------|
B|-------------------------------------------------------------------|
G|-------------------------------------------------------------------|
D|-0-0--0-0--0-0--0-0--0-0---0-0--0-0--0-0--0-0--0-0--0-0---0--------|
A|-------------------------------------------------------------------|
E|-------------------------------------------------------------------|

(1:08)

e|-----10-------10-----9------9h10-----9-------|
B|---------------------------------------------|
G|---------------------------------------------|
D|-0-0-----0-0----0-0----0-0--------0----------|
A|---------------------------------------------|
E|---------------------------------------------|

e|-----5-----5-----5h7-----5-------------------|
B|---------------------------------------------|
G|---------------------------------------------|
D|-0-0---0-0---0-0------0----------------------|
A|---------------------------------------------|
E|---------------------------------------------|

e|----10----10---12---12---14---15---17------|
B|-------------------------------------------|
G|-------------------------------------------|
D|-0-0--0-0--0-0--0-0--0-0---0-0--0-0--------|
A|-------------------------------------------|
E|-------------------------------------------|

Chorus (Strumming) (1:21)

Guitar 1 & Guitar 2 have the same chords as the intro-verse,
But the chorus is a little shorter.

After This Chorus (1:46) Do this 4 times.

Gitar 1

e|-----10----9----7----5-------------------------|
B|-----------------------------------------------|
G|-----------------------------------------------|
D|-0-0---0-0--0-0---0-0--------------------------|
A|-----------------------------------------------|
E|-----------------------------------------------|


Chorus -Already shown above. (1:56)

Verse (Picking) - Already shown above. (2:18)

Chorus - Already shown above. (2:41)

Whatever After This Chorus (3:05)

This I'm not 100% sure about.
I'm just putting something I saw on Youtube.
I'm just gicing you the tabs though,
Figure out how to pay it because it'd be a lot of work to write it out.
But the gist of it is that you palm mute it,
& a little before switching have one unmuted note.

Guitar 1

e|----3--------5--------7---------|
B|----5--------7--------9---------|
G|--------------------------------|
D|--------------------------------|
A|--------------------------------|
E|--------------------------------|

Guitar 2

Ths part is palm muted.
And repeated a lot.

e|-------------------------|
B|-------------------------|
G|-------------------------|
D|-------------------------|
A|-10----9-----7-----------|
E|-------------------------|


Aftert this (3:24)

This part I really don't know what to do to be honest xD
I'll edit this tab when I figure it out.

Chorus - Already Shown Aboive. (3:52)

Outro (4:14)

Guitar 1

e|----10---10---9---9h10--9-------|
B|--------------------------------|
G|--------------------------------|
D|-0-0--0-0--0-0--0-0---0---------|
A|--------------------------------|
E|--------------------------------|

e|-----5----5---7---5h7---5-------|
B|--------------------------------|
G|--------------------------------|
D|-0-0--0-0--0-0--0-0---0---------|
A|--------------------------------|
E|--------------------------------|

e|----10---10---9---9h10--9-------|
B|--------------------------------|
G|--------------------------------|
D|-0-0--0-0--0-0--0-0---0---------|
A|--------------------------------|
E|--------------------------------|

e|--5--|
B|--3--|
G|--2--|
D|--0--|
A|--0--|
E|--x--|
comments
We did not receive enough feedback on this tab! Please rate:
print report bad tab
1 2 3 4 5
1 comment total.
0 reply
WhoaItsDustin wrote on March 18 2012, 05:07 pm

This is how the Intro goes, My bad :P

e|------5------5-----3------2------2------------|
B|----3------3-----3------3-----3-----3---------|
G|----------------------------------------------|
D|-0------0------0------0-----0-----------------|
A|----------------------------------------------|
E|----------------------------------------------|

I want to post or [tab]
guest
You may want to rate the tab now too:
select rating
Please do not post tabs as comments. Select "correction" instead!