Oops, an error
Loading. Please wait.

You Had Me At Hello tab

version 9
version 9

Whole song

Interactive

133 views 1 this week
no commentswrite comment
1 2 3 4 5
3 more votes to show rating
add to favorites
×
Save as Personal and add changes to this tab that will be seen only by you. Learn more ›
×
You can save this tab as Personal to edit and correct it or add notes. All changes will be seen only by you. Learn more »
launch autoscroll
font size
0
reset
how to read this tab
guitar tuner
edit
Autoscroll
slow
fast
+/-
esc
set tempo
stop
Author
About this tab version
This tab is in a different tuning which is much easier to play. Was this info helpful? Yes No
------------------------------------------------------------------------------
                      YOU HAD ME AT HELLO - A Day to Remember
------------------------------------------------------------------------------

I cant believe the highest rated tab barely passes for correct!

Here is the absolute 100% correct version according to me.

In Verse pt. 2, listen to the song he picks those chords I just didn't feel like typing it out.

See bottom for alternate chorus.

Tuning: DADAae 
(Standard is EADGBe)
E down to D
A stays the same
D stays the same
G up to A
B down to A
e stays the same

[Intro]

e|------5-----5----3-----2----2----------------------------------------------|
a|----0-----0----0-----0----0---0--------------------------------------------|
A|----0-----0----0-----0----0---0--------------------------------------------|
D|--0-----0----0-----0----0--------------------------------------------------|
A|---------------------------------------------------------------------------|
D|---------------------------------------------------------------------------|

[Verse]                            [Verse pt.2]
[I'm missing you so much...]       [And I'm wasting away...]
                                    These are just the chords,
                                     you need to get the 
    D  E  G   E  Gb G                strumming/picking down.  
e|--x--x--x---x--x--x--------------10p9--5h7p5---10-12-17-17-15-14-15-14-----|
a|--0--0--0---0--0--0--------------0--0--0-------0--0--0---------------------|
A|--0--0--0---0--0--0--------------0--0--0-------0--0--0---------------------|
D|--0--0--0---0--0--0--------------0--0--0-------0--0--0---------------------|
A|--0--2--5---2--5--5--------------x--x--x-------x--x--x---------------------|
D|--0--2--5---2--4--5--------------9--7--5-------9--11-12--------------------|

(Verse pt.2 continued)
    B  Db      G       B  A  G
e|--10-9h10p9-5h7p5---10-12-17-----------------------------------------------|
a|--0--0------0-------0--0--0------------------------------------------------|
A|--0--0------0-------0--0--0------------------------------------------------|
D|--0--0------0-------0--0--0------------------------------------------------|
A|--x--x------x-------x--0--x------------------------------------------------|
D|--9--11-----5-------9--x--17-----------------------------------------------|

[Chorus]
[What have I...}
    D  G  B  G   D  G  B  G 
e|--x--x--x--x---x--x--x--x---------10----------9----------7-----------5-----|
a|--0--0--0--0---0--0--0--0---------0-----------0----------0-----------0-----|
A|--0--0--0--0---0--0--0--0------0-----0-----0-----0----0-----0-----0-----0--|
D|--0--0--0--0---0--0--0--0------0-----0-----0-----0----0-----0-----0-----0--|
A|--0--5--9--5---0--5--9--5---0-----------0-----------0----------0-----------|
D|--0--5--9--5---0--5--9--5---0-----------0-----------0----------0-----------|

[Verse]                        [Verse pt. 2]
[I've never seen...]           [And I'm wasting away...]
    D  E  G   E  Gb G           B  A  G       B  Db D
e|--x--x--x---x--x--x-----------10p9--5h7p5---10-12-17-17-15-14-15-14--------|
a|--0--0--0---0--0--0-----------0--0--0-------0--0--0------------------------|
A|--0--0--0---0--0--0-----------0--0--0-------0--0--0------------------------|
D|--0--0--0---0--0--0-----------0--0--0-------0--0--0------------------------|
A|--0--2--5---2--5--5-----------x--x--x-------x--x--x------------------------|
D|--0--2--5---2--4--5-----------9--7--5-------9--11-12-----------------------|

(Verse pt.2 continued)
    B  Db     G       B  A G
e|--10-9h10p9-5h7p5---10-12-17-----------------------------------------------|
a|--0--0------0-------0--0--0------------------------------------------------|
A|--0--0------0-------0--0--0------------------------------------------------|
D|--0--0------0-------0--0--0------------------------------------------------|
A|--x--x------x-------x--0--x------------------------------------------------|
D|--9--11-----5-------9--x--17-----------------------------------------------|
[Chorus]        x2           [Interlude]
[What have I...}             [You gave me butterflies...]
                             [palm mute](slowly get louder)(transition from 
    D  G  B  G   D  G  B  G   G  A  B     G  A  B           interlude to chorus)
e|--x--x--x--x---x--x--x--x---x--x--x-----x--x--x-------------x--------------|
a|--0--0--0--0---0--0--0--0---x--x--x-----5--7--9-------------0~-------------|
A|--0--0--0--0---0--0--0--0---x--x--x-----0--0--0-------------0~-------------|
D|--0--0--0--0---0--0--0--0---0--0--0-----0--0--0-------------0~-------------|
A|--0--5--9--5---0--5--9--5---5--7--9-----5--7--9-------------0~-------------|
D|--0--5--9--5---0--5--9--5---5--7--9-----5--7--9-------------0~-------------|

[Chorus]          x2
[What have I...}
    D  G  B  G   D  G  B  G 
e|--x--x--x--x---x--x--x--x---------10----------10----------9-----------9----|
a|--0--0--0--0---0--0--0--0---------0-----------0----------0-----------0-----|
A|--0--0--0--0---0--0--0--0------0-----0-----0-----0----0-----0-----0-----0--|
D|--0--0--0--0---0--0--0--0------0-----0-----0-----0----0-----0-----0-----0--|
A|--0--5--9--5---0--5--9--5---0-----------0-----------0----------0-----------|
D|--0--5--9--5---0--5--9--5---0-----------0-----------0----------0-----------|

[Chorus]          
[What have I...}
   Sorry they got so close together
at the end I'm running out of room. 
e|-------9-----------5----------5-----------5----------5------5--------10----|
a|-------0-----------0----------0-----------0----------0------0--------0-----|
A|-----0-----0-----0-----0----0-----0-----0-----0----0---0--0---0-----0--0---|
D|-----0-----0-----0-----0----0-----0-----0-----0----0---0--0---0-----0--0---|
A|--0-----------0-----------0----------0-----------0-------0--------0--------|
D|--0-----------0-----------0----------0-----------0-------0--------0--------|

e|------10--------9--------9--------9------5---------------------------------|
a|------0---------0--------0--------0------0---------------------------------|
A|----0----0----0---0----0---0----0---0----0-----------END-SONG--------------|
D|----0----0----0---0----0---0----0---0----0---------------------------------|
A|--0---------0--------0--------0----------0---------------------------------|
D|--0---------0--------0--------0----------0---------------------------------|



[Alternate Chorus]*
[What have I...}
    D  G  Gb G   D  G  Gb G 
e|--x--x--x--x---x--x--x--x---------10----------9----------7-----------5-----|
a|--0--0--0--0---0--0--0--0---------0-----------0----------0-----------0-----|
A|--0--0--0--0---0--0--0--0------0-----0-----0-----0----0-----0-----0-----0--|
D|--0--0--0--0---0--0--0--0------0-----0-----0-----0----0-----0-----0-----0--|
A|--0--5--2--5---0--5--2--5---0-----------0-----------0----------0-----------|
D|--0--5--4--5---0--5--4--5---0-----------0-----------0----------0-----------|
*The only difference is that I put a Gb instead of a B. 
Same exact notes 
(B: 9 B  Gb: 4 Gb
    9 Gb     2 B
    0 D      0 D
    0 A      0 A
    0 a      0 a
    x        x
   
************************************

| x   Dead note
| g   Grace note
| (n) Ghost note
| h   Hammer-on
| p   Pull-off
| r   Release
| >   Accented note
| t   Tapping
| b   Bend
| br  Bend release
| pb  Pre-bend
| pbr Pre-bend release
| /   Slide up
| \   Slide down
| ~   Vibrato
| s   Slap
| P   Pop
| PM  Palm mute
| TR  Trill
| N   Tremolo

************************************

            
            
Suggest correction
Creating personal tab
Creating personal tab
You can edit any tab online and save it as your Personal.

You can edit, replace or remove any tab part or add personal notes – all changes will be seen only by you.

Personal tabs can be accessed anytime from any device, even offline.
Learn more »
Give kudos to tab author, rate the tab!
1 2 3 4 5
comments
print report bad tab
guest
You may want to rate the tab now too:
select rating
Wanna post a correction for this tab? Suggest correction