Oops, an error
Loading. Please wait.

You Shouldve Killed Me When You Had The Chance Bass Tab

version 1
version 1

Whole song

Interactive

17,331 views 9 this week
no commentswrite comment
1 2 3 4 5
excellent!
x 3
add to favorites
launch autoscroll
font size
0
reset
guitar tuner
Tab Pro tools
  • play this tab
  • loop segment
  • change instrument
  • show fretboard
  • metronome
×
Best way to learn
"You Shouldve Killed Me When You Had The Chance"
Autoscroll
slow
fast
+/-
esc
set tempo
stop
Contributor
Difficulty
Tuning
novice
C G C F A D
-----------------------------------------------------------------------------
     You Should've Killed Me When You Had The Chance - A Day To Remember     
-----------------------------------------------------------------------------

Tabbed By: veageta8 
e-mail: veageta8@hotmail.com

Tuning: Drop C (CGCF)

Adapted from "iRockSG"'s Guitar Tab. Minor adjustments for bass, some corrections.

Key:
"~" Sustain
"h" Hammer-on
"p" Pull-off
"x/y" Slide up from x to y
"x\y" Slide down from x to y

Intro: (0:09)
F|---------------------------------------------------------------------|
C|---------------------------------------------------------------------|
G|-5--5--5--5--5~---5--5--5--5--5~-------------------------------------|
C|-----------------------------------8--8--8--8--8~---10-10-10-10-10~--|


Verse: (0:21)
F|-------------------------------------------------------------|
C|-------------------------------------------------------------|
G|-------------------------------------------------------------|
C|-0-0-0-0-0-0-0-0-0-0-0-0-0-0-0-0-0-0-0-0-0-0-0-0-0-0-0-0--8--|

F|--------------------------------------------------------|
C|--------------------------------------------------------|
G|--------------------------------------------------------|
C|-8-8-8-8-8-8-8-8-8-8-8-8-8--10-10-10-10-10-7-7-7-7-7--0-|

F|-----------------------------------------------------------|
C|-----------------------------------------------------------|
G|-----------------------------------------------------------|
C|-0-0-0-0-0-0-0-0-0-0-0-0-0-0-0-0-0-0-0-0-0-0-0-0-0-0-0--8--|

F|-------------------------------------------------------|
C|-------------------------------------------------------|
G|-------------------------------------------------------|
C|-8-8-8-8-8-8-8-8-8-8-8-8-8--10-10-10-10-10-7-7-7-7-7---|


Pre-chorus: (0:41)
F|--------------------------------------------------------------------|
C|--------------------------------------------------------------------|
G|--------------------------------------------------------------------|
C|-5-5-5-5-5-5-5-5--8-8-8-8-8-8-8-8--0-0-0-0-0-0-0-0--3-3-3-3-3-3-3-3-|

F|--------------------------------------------------------------------|
C|--------------------------------------------------------------------|
G|--------------------------------------------------------------------|
C|-8-8-8-8-8-8-8-8--10-10-10-10-10-10-10-10---------------------------|


Chorus: (0:59)
F|--------------------------------------------------------------|
C|--------------------------------------------------------------|
G|--------------------------------------------------------------|
C|-0-0-0-0-0-0-0-0--8-8-8-8-8-8-8-8--10-10-10-10-10-10-10-10----|

F|---------------------|
C|---------------------|
G|---------------------|
C|---3-3-3-3-3-3-3-3---|

F|--------------------------------------------------------------|
C|--------------------------------------------------------------|
G|--------------------------------------------------------------|
C|-0-0-0-0-0-0-0-0--8-8-8-8-8-8-8-8--10-10-10-10-10-10-10-10----|


Interlude: (1:18)
F|-------------------------------------------------------------|
C|-------------------------------------------------------------|
G|-------------------------------------------------------------|
C|-0-0-0-0----0-0-0-0----8-8-8-8----10-10-10-10--10p0h10-------|


Verse 2: (1:22)
F|-------------------------------------------------------------|
C|-------------------------------------------------------------|
G|-------------------------------------------------------------|
C|-0-0-0-0-0-0-0-0-0-0-0-0-0-0-0-0-0-0-0-0-0-0-0-0-0-0-0-0--8--|

F|--------------------------------------------------------|
C|--------------------------------------------------------|
G|--------------------------------------------------------|
C|-8-8-8-8-8-8-8-8-8-8-8-8-8--10-10-10-10-10-7-7-7-7-7--0-|

F|-----------------------------------------------------------|
C|-----------------------------------------------------------|
G|-----------------------------------------------------------|
C|-0-0-0-0-0-0-0-0-0-0-0-0-0-0-0-0-0-0-0-0-0-0-0-0-0-0-0--8--|

F|-------------------------------------------------------|
C|-------------------------------------------------------|
G|-------------------------------------------------------|
C|-8-8-8-8-8-8-8-8-8-8-8-8-8--10-10-10-10-10-7-7-7-7-7---|


Pre-chorus: (1:49)
F|--------------------------------------------------------------------|
C|--------------------------------------------------------------------|
G|--------------------------------------------------------------------|
C|-5-5-5-5-5-5-5-5--8-8-8-8-8-8-8-8--0-0-0-0-0-0-0-0--3-3-3-3-3-3-3-3-|

F|--------------------------------------------------------------------|
C|--------------------------------------------------------------------|
G|--------------------------------------------------------------------|
C|-8-8-8-8-8-8-8-8--10-10-10-10-10-10-10-10---------------------------|


Chorus: (2:08)
F|--------------------------------------------------------------|
C|--------------------------------------------------------------|
G|--------------------------------------------------------------|
C|-0-0-0-0-0-0-0-0--8-8-8-8-8-8-8-8--10-10-10-10-10-10-10-10----|

F|---------------------|
C|---------------------|
G|---------------------|
C|---3-3-3-3-3-3-3-3---|

F|----------------------------------------------------------------|
C|----------------------------------------------------------------|
G|----------------------------------------------------------------|
C|-0-0-0-0-0-0-0-0--8-8-8-8-8-8-8-8--10-10-10-10-10-10-10-10\3~~~~|


Breakdown: (2:19)
F|-------------------------------------|
C|-------------------------------------|
G|-5-55555555555/8\1-111111111111/5----|
C|-------------------------------------|


Outro: (2:49)
F|-------------------------------------------------------------|
C|-------------------------------------------------------------|
G|-------------------------------------------------------------|
C|-3-3-3-3-3-3-3-3-3-3-3-3-3-3-3-3--000-000-000-000-0-0-0-0----|

F|-------------------------------------------------------------|
C|-------------------------------------------------------------|
G|-------------------------------------------------------------|
C|-3-3-3-3-3-3-3-3-3-3-3-3-3-3-3-3--000-000-000-000-0-0-0-0----|

F|-------------------------------------------------------------|
C|-------------------------------------------------------------|
G|-------------------------------------------------------------|
C|-3-3-3-3-3-3-3-3-3-3-3-3-3-3-3-3--000-000-000-000-0-0-0-0----|

F|-------------------------------------------------------------|
C|-------------------------------------------------------------|
G|-------------------------------------------------------------|
C|-3-3-3-3-3-3-3-3-3-3-3-3-3-3-3-3--000-000-000-000-0-0-0-0----|

F|-----|
C|-----|
G|-----|
C|--3~-|
comments
We did not receive enough feedback on this tab! Please rate:
print report bad tab
1 2 3 4 5
I want to post or [tab]
guest
You may want to rate the tab now too:
select rating
Please do not post tabs as comments. Select "correction" instead!