Oops, an error
Loading. Please wait.

Your Way With Words Is Through Silence tab

version 1
version 1

Whole song

13,188 views 6 this week
4 commentsread comments
1 2 3 4 5
x 11
add to favorites
×
Save as Personal and add changes to this tab that will be seen only by you. Learn more ›
×
You can save this tab as Personal to edit and correct it or add notes. All changes will be seen only by you. Learn more »
launch autoscroll
font size
0
reset
how to read this tab
guitar tuner
edit
Autoscroll
slow
fast
+/-
esc
set tempo
stop
-------------------------------------------------------------------------------
        Your Way With Words is Through Silence - A Day to Remember
-------------------------------------------------------------------------------
Tabbed by: jaysk8s
Email: jayroolzd00d@yahoo.com
Myspace.com/jayrulezd00d
twitter.com/jaysk8s

Tuning: Drop c

~-let ring
/-slide up
\-slide down
.-palm mute
h-hammer on
p-pull off
*-pinch harmonic
<>-natural harmonic
()-ghost note

This song is pretty easy and fun. I also have made a bass tab for this.

*ALL I HAVE IS RHYTHM RIGHT NOW BUT WHEN I GET TIME ILL ADD THE LEAD PART*

Rhythm Guitar-[Neil Westfall]

Intro 00:00
D|--------------------------------------------------------------------------|
A|--------------------------------------------------------------------------|
F|--------------------------------------------------------------------------|
C|-00000000-33333333-8888888888888888-12121212121212121212121212121212-8888-|
G|-00000000-33333333-8888888888888888-12121212121212121212121212121212-8888-|
C|-00000000-33333333-8888888888888888-12121212121212121212121212121212-8888-|

D|--------------|
A|--------------|
F|--------------|
C|-888888888888-|
G|-888888888888-|
C|-888888888888-|

D|-----------------------------------------------------------------------|
A|-----------------------------------------------------------------------|
F|-----------------------------------------------------------------------|
C|-00000-00003-3333-88888-88888-8888-1212121212-1212121212-12121212-8888-|
G|-00000-00003-3333-88888-88888-8888-1212121212-1212121212-12121212-8888-|
C|-00000-00003-3333-88888-88888-8888-1212121212-1212121212-12121212-8888-|

D|--------------|
A|--------------|
F|--------------|
C|-888888888888-|
G|-888888888888-|
C|-888888888888-|

Verse 1 00:20
D|------------------------------------------------------------------------|
A|------------------------------------------------------------------------|
F|------------------------------------------------------------------------|
C|-0~---------------3~---------------8~---------------10~-----------------|
G|-0~00000000000000-3~33333333333333-8~88888888888888-10~1010101010101010-|
C|-0~00000000000000-3~33333333333333-8~88888888888888-10~1010101010101010-|
     ..............   ..............   ..............    ................
          all x2
D|--------------|
A|--------------|
F|--------------|
C|--------------|
G|-101010101010-|
C|-101010101010-|
   ............
                                                                       x2
D|-----------------------------------------------------------------------|
A|-----------------------------------------------------------------------|
F|-----------------------------------------------------------------------|
C|-88888----------88888----------1212121212----------1010101010----------|
G|-88888----------88888----------1212121212----------1010101010----------|
C|-88888----------88888----------1212121212----------1010101010----------|

Chorus 1 01:00
D|--------------------------------------------------------------------------|
A|--------------------------------------------------------------------------|
F|--------------------------------------------------------------------------|
C|-00000000-33333333-8888888888888888-12121212121212121212121212121212-8888-|
G|-00000000-33333333-8888888888888888-12121212121212121212121212121212-8888-|
C|-00000000-33333333-8888888888888888-12121212121212121212121212121212-8888-|

D|--------------|
A|--------------|
F|--------------|
C|-888888888888-|
G|-888888888888-|
C|-888888888888-|

D|-----------------------------------------------------------------------|
A|-----------------------------------------------------------------------|
F|-----------------------------------------------------------------------|
C|-00000-00003-3333-88888-88888-8888-1212121212-1212121212-12121212-8888-|
G|-00000-00003-3333-88888-88888-8888-1212121212-1212121212-12121212-8888-|
C|-00000-00003-3333-88888-88888-8888-1212121212-1212121212-12121212-8888-|

D|--------------|
A|--------------|
F|--------------|
C|-888888888888-|
G|-888888888888-|
C|-888888888888-|

Verse 2 01:20
D|------------------------------------------------------------------------|
A|------------------------------------------------------------------------|
F|------------------------------------------------------------------------|
C|-0~---------------3~---------------8~---------------10~-----------------|
G|-0~00000000000000-3~33333333333333-8~88888888888888-10~1010101010101010-|
C|-0~00000000000000-3~33333333333333-8~88888888888888-10~1010101010101010-|
     ..............   ..............   ..............    ................
          all x2
D|--------------|
A|--------------|
F|--------------|
C|--------------|
G|-101010101010-|
C|-101010101010-|
   ............
                                                                       x2
D|-----------------------------------------------------------------------|
A|-----------------------------------------------------------------------|
F|-----------------------------------------------------------------------|
C|-88888----------88888----------1212121212----------1010101010----------|
G|-88888----------88888----------1212121212----------1010101010----------|
C|-88888----------88888----------1212121212----------1010101010----------|

Chorus 2 02:00
D|--------------------------------------------------------------------------|
A|--------------------------------------------------------------------------|
F|--------------------------------------------------------------------------|
C|-00000000-33333333-8888888888888888-12121212121212121212121212121212-8888-|
G|-00000000-33333333-8888888888888888-12121212121212121212121212121212-8888-|
C|-00000000-33333333-8888888888888888-12121212121212121212121212121212-8888-|

D|--------------|
A|--------------|
F|--------------|
C|-888888888888-|
G|-888888888888-|
C|-888888888888-|

D|-----------------------------------------------------------------------|
A|-----------------------------------------------------------------------|
F|-----------------------------------------------------------------------|
C|-00000-00003-3333-88888-88888-8888-1212121212-1212121212-12121212-8888-|
G|-00000-00003-3333-88888-88888-8888-1212121212-1212121212-12121212-8888-|
C|-00000-00003-3333-88888-88888-8888-1212121212-1212121212-12121212-8888-|

D|--------------|
A|--------------|
F|--------------|
C|-888888888888-|
G|-888888888888-|
C|-888888888888-|

Bridge/Breakdown 02:19
D|-----------------------------------------------------------------------|
A|-----------------------------------------------------------------------|
F|----------------10101010/9999999----------------1010101010101010101010-|
C|---------------- x x x x-xxxxxxx---------------- x x x x x x x x x x x-|
G|-00000-----00000 8 8 8 8-8888888-88888-----88888 8 8 8 8 8 8 8 8 8 8 8-|
C|-00000-----00000-----------------88888-----88888-----------------------|
   .....     .....                 .....     .....
                                     x2
D|-------------------------------------|---------------------------------|
A|-------------------------------------|---------------------------------|
F|-------------------------------------|---------------------------------|
C|-------------------------------------|-88-88-10~~~~~~~~\0~~~~~~~~~~~~~~|
G|-00000-----00000-----88888-----88888-|-88-88-10~~~~~~~~\0~~~~~~~~~~~~~~|
C|-00000-----00000-----88888-----88888-|-88-88-10~~~~~~~~\0~~~~~~~~~~~~~~|
   .....     .....     .....     .....

Last Chorus 03:12
D|--------------------------------------------------------------------------|
A|--------------------------------------------------------------------------|
F|--------------------------------------------------------------------------|
C|-00000000-33333333-8888888888888888-12121212121212121212121212121212-8888-|
G|-00000000-33333333-8888888888888888-12121212121212121212121212121212-8888-|
C|-00000000-33333333-8888888888888888-12121212121212121212121212121212-8888-|
          all x4
D|--------------|
A|--------------|
F|--------------|
C|-888888888888-|
G|-888888888888-|
C|-888888888888-|

Outro 03:48
D|----------------------|
A|----------------------|
F|----------------------|
C|-0-0-00-3-3-3333-8\\\\|
G|-0-0-00-3-3-3333-8\\\\|
C|-0-0-00-3-3-3333-8\\\\|

            
            
Suggest correction
Creating personal tab
Creating personal tab
You can edit any tab online and save it as your Personal.

You can edit, replace or remove any tab part or add personal notes – all changes will be seen only by you.

Personal tabs can be accessed anytime from any device, even offline.
Learn more »
comments
print report bad tab
4 comments total. Showing first comments.
0 reply
necriononguitar 3,062 Mar 28, 2010 10:39 PM

yeah great tab. and if ur sick of writing 12s 24 times, u can write---12------- ;D that would make it less confusing ;D
---12-x8----
---12-------
5*

0 reply
emilbullforever 90 Apr 19, 2010 10:43 AM

u know both ur tabs to this song are great and i rly hate it that all the good tabs are mostly unknown... just sux...
but stil 5*

0 reply
RAMM-STEIN Josh 41 Jan 27, 2012 03:40 AM

Amazon' Mate Thank's

guest
You may want to rate the tab now too:
select rating
Wanna post a correction for this tab? Suggest correction