Oops, an error
Loading. Please wait.

Axadentist tab

963 views 1 this week
4 commentsread comments
1 2 3 4 5
3 more votes to show rating
add to favorites
×
Save as Personal and add changes to this tab that will be seen only by you. Learn more ›
×
You can save this tab as Personal to edit and correct it or add notes. All changes will be seen only by you. Learn more »
launch autoscroll
font size
0
reset
how to read this tab
guitar tuner
edit
Autoscroll
slow
fast
+/-
esc
set tempo
stop
Author
Difficulty
A Different Breed Of Killer - Rise Records
www.myspace.com/adifferentbreedofkiller
You can go this in either seven string or six string dropped down.
Doesn't matter, they don't go high.
picking amounts are not exact.
song goes in order.
figure out repeats.
PM - X
PH - *

b |-------------------------------------------------|
f#|-------------------------------------------------|
D |-------------------------------------------------|
A |-------------------------------------------------|
E |-------3-------2----1----------------------------|
A |-23-23---23-23---23------------------------------|



b |-------------------------------------------------|
f#|-------------------------------------------------|
D |-------------------------------------------------|
A |-------------------------------------------------|
E |--2-3--3--2-3-2----------------------------------|
A |--2-3-----2-3------------------------------------|


b |-------------------------------------------------|
f#|-------------------------------------------------|
D |-------------------------------------------------|
A |-------------------------------------------------|
E |------88-77------666-----------------------------|
A |--777-------666----------------------------------|


b |-------------------------------------------------|
f#|-------------------------------------------------|
D |---10-9-----8------------------------------------|
A |---------6---------------------------------------|
E |-7-8--7--6--6------------------------------------|
A |-7-------6---------------------------------------|


b |-------------------------------------------------|
f#|-------------------------------------------------|
D |-------------------------------------------------|
A |-------------------------------------------------|
E |-0-2-3210-4-3---------------44-3-----------------|
A |-0-2-3210-----3---0-2-3210-------3---------------|
PM  X X XXXX * * *   X X XXXX   


b |-------------------------------------------------|
f#|----------10-------9-10----10-------13-10--------|
D |------------12----------------12-----------------|
A |-0-----00-------00------00-------00--------------|
E |-0-----------------------------------------------|
A |-0-----------------------------------------------|
PM        XX       XX      XX       XX


b |-------------------------------------------------|
f#|----------10-------9-10----13-10-9-10-9-8--------|
D |------------12-----------------------------------|
A |-0-----00-------00------00-----------------------|
E |-0-----------------------------------------------|
A |-0-----------------------------------------------|
PM        XX       XX      XX       

b |-------------------------------------------------|
f#|-------------------------------------------------|
D |-------------------------------------------------|
A |-------------------------------------------------|
E |-------------------------------------------------|
A |-0-0-0-0-----------------------------------------|

b |-------------------------------------------------|
f#|-------------------------------------------------|
D |-------------------------------------------------|
A |-------------------------------------------------|
E |-0-0-0-0-----------------------------------------|
A |-0-0-0-0-----------------------------------------|

This is tapping
b |-------------------------------------------------|
f#|-------------------------------------------------|
D |-------------------------------------------------|
A |-15-12-15-12-15-12-15-12-14-12-14-12-14-12-14-12-|
E |-------------------------------------------------|
A |-------------------------------------------------|

b |--------------------------------------------------------------|
f#|--------------------------------------------------------------|
D |--------------------------15-12-15-12-15-12-14-12-14-12-14-12-|
A |-15-12-15-12-15-12-15-12--------------------------------------|
E |--------------------------------------------------------------|
A |--------------------------------------------------------------|






            
            
Suggest correction
Creating personal tab
Creating personal tab
You can edit any tab online and save it as your Personal.

You can edit, replace or remove any tab part or add personal notes – all changes will be seen only by you.

Personal tabs can be accessed anytime from any device, even offline.
Learn more »
Give kudos to tab author, rate the tab!
1 2 3 4 5
comments
print report bad tab
4 comments total. Showing first comments.
0 reply
TADJACKSON 31 Aug 24, 2008 05:12 AM

oh dear
this is aweful

0 reply
TADJACKSON 31 Aug 24, 2008 05:20 AM

b |------------------------------------------------|
f#|----10--------10-11-------10--------13-11--------
D |-------12--------------------12------------------
A |-00--------00-------00----------00---------------
E |-------------------------------------------------|
A |-------------------------------------------------|

b |-------------------------------------------------|
f#|----- 10-------10-11------13-11-10-11-10-8--------
D |--------12----------------------------------------
A |---00-------00-------00---------------------------
E |-------------------------------------------------|
A |------------------------------------------|

the second time its same but without the 8 at the end of riff, hold the 10.
That is deffo right.

0 reply
TADJACKSON 31 Aug 24, 2008 05:21 AM

damn
i love that riff, this band are so sick.
ill have a go at helping you out with the rest.

guest
You may want to rate the tab now too:
select rating
Wanna post a correction for this tab? Suggest correction