Oops, an error
Loading. Please wait.
770 views 1 this week
1 commentread comment
1 2 3 4 5
please rate
add to favorites
launch autoscroll
font size
0
reset
how to read this tab
guitar tuner
Tab Pro tools
  • play this tab
  • loop segment
  • change instrument
  • show fretboard
  • metronome
×
Best way to learn
"Omega"
Autoscroll
slow
fast
+/-
esc
set tempo
stop
Contributor
----------------------------------------------------------------------------
                                                    Omega by A Different Breed of Killer
----------------------------------------------------------------------------
Tabbed by: DARIAN MAZLOOMI
Email:aworldwheretruthisfrail@hotmail.com

Tuning:DROP A

0:00-0:026;3:05-3:18

B|----------------------------------------------------------------------------|
F#----------------------------------------------------------------------------|
D|----------------------------------------------------------------------------|
A|-555-555--------5----------5----------5--5---4--------5--8-8------------8---|
E|-444-444---4-4-4-4----4-4-4-4----4-4-4-4--4-4-3--4-4-4-4--7-7------7-7-7-7--|
A|-555-555-00-0-0---5-00-0-0---5-00-0-0---5--5---00-0-0---5----8-5-00-0-0----8|

B|--------------------------------------------------------------------------|
F#--------------------------------------------------------------------------|
D|--------------------------------------------------------------------------|
A|--------8--8---7--------8---888-555---------------------------------------|
E|---7-7-7-7--7-7-6--7-7-7-7--777-444---------------------------------------|
A|-00-0-0---8--8---00-0-0---8-888-555---------------------------------------|

0:026-0:057

B|--------------------------------------------------------------------------|
F#--------------------------------------------------------------------------|
D|--------------------------------------------------------------------------|
A|---------------6*-------------4-4444----------------6*--------------------|
E|-------------34---------------3-3333--------------34----------------------|
A|3/43-010-3/43----3/43-010-3/4-4-4444-3/43-010-3/43--------3/43-010-3/43---|

B|--------------------------------------------------------------------------|
F#--------------------------------------------------------------------------|
D|--------------------------------------------------------------------------|
A|-4-44-4-44--4444----------------------------------------------------------|
E|-3-33-3-33--3333----------------------------------------------------------|
A|-4-44-4-44--4444----------------------------------------------------------|

0:057-1:20

B|--------------------------------------------------------------------------|
F#--------------------------------------------------------------------------|
D|--------------------------------------------------------------------------|
A|------------------------------------------------7/10\7-7/10\7-------------|
E|---5-5h6p5h6p5h6-5p4-5/8-5p4------8-8h9p8h9p8h9-------8------8------------|
A|-00-0-----------------------6h7-00-0--------------------------------------|

1:20-1:28

B|--------------------------------------------------------------------------|
F#--------------------------------------------------------------------------|
D|--------------------------------------------------------------------------|
A|-6545-6545-65453453-654530-3+3+3+3+-65453453-65453------------------------|
E|-6545-6545-65453453-654530----------65453453-65453------------------------|
A|-6545-6545-65453453-654530----------65453453-65453------------------------|

1:28-1:50

B|------------------|----------------------------------|--------------------|
F#------------------|----------------------------------|--------------------|
D|------------------|----------------------------------|--------------------|
A|0-0-0000-00000000-|-43231231432312314323123143231231-|-0-0-0000-00000000--|
E|0-0-0000-00000000-|-43231231432312314323123143231231-|-0-0-0000-00000000--|
A|1-1-1111-11111111-|-43231231432312314323123143231231-|-1-1-1111-11111111--|

1:50-1:58

B|-----------------------------------17h20p17-------------------------------|
F#----------------14h15-18-17------18--------18-----15----------------------|
D|--------12h13h15---------------17-------------14-----13-12----------------|
A|--12h13---------------------15--------------------------------------------|
E|--------------------------------------------------------------------------|
A|--------------------------------------------------------------------------|

1:58-2:05
B|--------------------------------------------------------------------------|
F#--------------------------------------------------------------------------|
D|--------------------------------------------------------------------------|
A|-765---65------765---65------765---65------7656--12*----------------------|
E|-765-8*65-7*---765-8*65-7*---765-8*65-7*---7656---------------------------|
A|-765---65---5*-765---65---5*-765---65---8*-7656---------------------------|

2:05-2:20

B|-------------|------------------------------------------------------------|
F#-------------|------------------------------------------------------------|
D|-------------|------------------------------------------------------------|
A|-------------|------------------------------------------------------------|
E|---8-7-2-----|---8-8-8----------------------------------------------------|
A|-0-----------|--9-9-9-----------------------------------------------------|
tremolo picked   not tremolo picked

2:20-2:37

B|-------------------------------|------------------------------------------|
F#-------------------------------|------------------------------------------|
D|-------------------------------|------------------------------------------|
A|-8p7-7--8p7-7---8p7-7--7p6-6---|-6----------------------------------------|
E|-------------------------------|-5----------------------------------------|
A|----0-00---0-00----0-00---0-00-|-6----------------------------------------|

2:37-3:05

B|-----------------------------------------------|--------------------------|
F#-----------------------------------------------|--------------------------|
D|------------------------8----------------------|--------------------------|
A|-0-0000-0000-0000-0----7--0-0000-0000-0000-0-6-|-666-666------------------|
E|-0-0000-0000-0000-0-3/6---0-0000-0000-0000-0-5-|-555-555------------------|
A|-0-0000-0000-0000-0-------0-0000-0000-0000-0-6-|-666-666------------------|


| /  slide up
| \  slide down
| h  hammer-on
| p  pull-off
| ~  vibrato
| +  harmonic
| x  Mute note
|* pinch
=============================================================

http://www.youtube.com/watch?v=KNFrjxNrUFc&feature=channel
comments
We did not receive enough feedback on this tab! Please rate:
print report bad tab
1 2 3 4 5
1 comment total.
0 reply
surgicaltools wrote on August 4 2009, 08:04 pm

THE SONG IS CALLED AUTONOMY I DLED THE ALBUM AND THE NAMES WERE MIXED FUCK

I want to post or [tab]
guest
You may want to rate the tab now too:
select rating
Please do not post tabs as comments. Select "correction" instead!