Oops, an error
Loading. Please wait.

Nightmare Of A Martyr Tab

573 views 1 this week
2 commentsread comments
1 2 3 4 5
please rate
add to favorites
launch autoscroll
font size
0
reset
how to read this tab
guitar tuner
Autoscroll
slow
fast
+/-
esc
set tempo
stop
Help us to improve Ultimate-Guitar.com Take our survey!
×
Author
The song is in Drop Db/C# tuning
I tabbed it all in order so there's no skipping around

enjoy


Both guitars (play 6x)
--------------------------------------------------------------|
--------------------------------------------------------------|
--------------------------------------------------------------|
--------------------------------------------------------------|
-2-----2--2-2-2/9-----9--9-9-9/5-----5--5-5-5/7-----7--7-7-7--|
-2-222-2--2-2-2/9-999-9--9-9-9/5-555-5--5-5-5/7-777-7--7-7-7--|

Both guitars (play 1x)
------------------------|
------------------------|
------------------------|
------------------------|
-3-2-0-3-2-0-1~-------3-|
-3-2-0-3-2-0-1~-------3-|

Both guitars (play 2x)
-----------------------------------------------------------------------|
-----------------------------------------------------------------------|
-----------------------------------------------------------------------|
-----------------------------------------------------------------------|
--------------2---------------2---------------0---------------0--3--2--|
--222-222-2-2-2---222-222-2-2-2---000-000-0-0-0---000-000-0-0-0--3--2--|

both guitars (play 1x)
--------------------------------------------------------------------------|
--------------------------------------------------------------------------|
----------------<5>-------------------------------------------------------|
----------------------------------<5>-------------------------------------|
--------------2-----------------2-----------------0---------------0--3--2-|
--222-222-2-2-2-----222-222-2-2-2-----000-000-0-0-0---000-000-0-0-0--3--2-|

guitar 1 (play 1x)
-----------------------------------------------------------------------|
-----------------------------------------------------------------------|
-----------------------------------------------------------------------|
-----------------------------------------------------------------------|
--------------2---------------2---------------0---------------0--3--2--|
--222-222-2-2-2---222-222-2-2-2---000-000-0-0-0---000-000-0-0-0--3--2--|

guitar 2 (play 1x)
--------------------------------------------------------------------------|
--12-10----10-------12-10----10-------12-10----10-------12-10----10-------|
--------12----12-11-------12----12-11-------12----12-11-------12----12-11-|
--------------------------------------------------------------------------|
--------------------------------------------------------------------------|
--------------------------------------------------------------------------|

guitar 1 (play 1x)
--------------------------------------------------------------|
--------------------------------------------------------------|
--------------------------------------------------------------|
--------------------------------------------------------------|
--2-----1-----2-----1-----2-----1-----2-----1------0--0--0--0-|
----0-0---0-0---0-0---0-0---0-0---0-0---0-0---0-0--0--0--0--0-|

guitar 2 (play 1x)
---------------------------------------------------------|
--11-11-11-11-11-11-11-11-14-14-14-14-14-14-14-14--------|
---------------------------------------------------------|
---------------------------------------------------------|
---------------------------------------------------------|
---------------------------------------------------------|

both guitars
-----------------------------------------------|
-----------------------------------------------|
-----------------------------------------------|
-----------------------------------------------|
--------------------------------------0--0--0--|
--3-2-0-2-3-2-3-2-0-2-5-2-3-2-0-2-3-2-0--0--0--|

--------------------------------------------------|
--------------------------------------------------|
--------------------------------------------------|
--------------------------------------------------|
--2-----------2-----------2-----------0--0--0--0--|
----3-2-5-3-2---3-2-5-3-2---3-2-5-3-2-0--0--0--0--|

-----------------------------------------------|
-----------------------------------------------|
-----------------------------------------------|
-----------------------------------------------|
--------------------------------------0--0--0--|
--3-2-0-2-3-2-3-2-0-2-5-2-3-2-0-2-3-2-0--0--0--|

--------------------------------------------------|
--------------------------------------------------|
--------------------------------------------------|
--------------------------------------------------|
--2-----------2-----------2-----------0--0--0--0--|
----3-2-5-3-2---3-2-5-3-2---3-2-5-3-2-0--0--0--0--|

-------------------|
-------------------|
-------------------|
-------------------|
-------------------|
--000-000-000-000--|

both guitars (play 2x)
--------------------------------------------------------------|
--------------------------------------------------------------|
--------------------------------------------------------------|
--------------------------------------------------------------|
-2-----2--2-2-2/9-----9--9-9-9/5-----5--5-5-5/7-----7--7-7-7--|
-2-222-2--2-2-2/9-999-9--9-9-9/5-555-5--5-5-5/7-777-7--7-7-7--|

both guitars (play 2x)
--------------------------------------------------------------|
--------------------------------------------------------------|
--------------------------------------------------------------|
--------------------------------------------------------------|
-2-2-2-2--2-2-2-9-9-9-9--9-9-9-5-5-5-5--5-5-5-7-7-7-7--7-7-7--|
-2-2-2-2--2-2-2-9-9-9-9--9-9-9-5-5-5-5--5-5-5-7-7-7-7--7-7-7--|

both guitars (play 2x)
------------------------------------------------------|
------------------------------------------------------|
------------------------------------------------------|
------------------------------------------------------|
-------3322222-------------------3322222--------------|
-22222---------11111-11111-22222---------00000-00000--|

both guitars (play 2x)
----------------------------------------------------------------|
----------------------------------------------------------------|
----------------------------------------------------------------|
----------------------------------------------------------------|
--3-2-0-10-9-7-3-2-1-1-1--1-1-1--3-2-0-10-9-7-3-2-0-0-0--0-0-0--|
--3-2-0-10-9-7-3-2-1-1-1--1-1-1--3-2-0-10-9-7-3-2-0-0-0--0-0-0--|

both guitars (play 2x)
------------------------------------------------------------------------------------|
------------------------------------------------------------------------------------|
------------------------------------------------------------------------------------|
--9-9-9-9-9-9-9-9-9-9-9-9-9-9-9-9-10-10-10-10-10-10-10-10-10-10-10-10-10-10-10-10---|
--9-9-9-9-9-9-9-9-9-9-9-9-9-9-9-9-10-10-10-10-10-10-10-10-10-10-10-10-10-10-10-10---|
--9-9-9-9-9-9-9-9-9-9-9-9-9-9-9-9-10-10-10-10-10-10-10-10-10-10-10-10-10-10-10-10---|

both guitars (play 2x; no harmonics on the second time)
----------------------------------------------------------|
----------------------------------------------------------|
-----------------------------------------------<12>-------|
----------------------------------------------------<12>--|
--3/2--2--2--2--2--2---3/2-3/2--2--2--2--2--2-------------|
--3/2--2--2--2--2--2---3/2-3/2--2--2--2--2--2-------------|

both guitars (play 2x)
------------------------------------------------------------------------------------|
------------------------------------------------------------------------------------|
------------------------------------------------------------------------------------|
--9-9-9-9-9-9-9-9-9-9-9-9-9-9-9-9-10-10-10-10-10-10-10-10-10-10-10-10-10-10-10-10---|
--9-9-9-9-9-9-9-9-9-9-9-9-9-9-9-9-10-10-10-10-10-10-10-10-10-10-10-10-10-10-10-10---|
--9-9-9-9-9-9-9-9-9-9-9-9-9-9-9-9-10-10-10-10-10-10-10-10-10-10-10-10-10-10-10-10---|

both guitars (play 2x; no harmonics on the second time)
----------------------------------------------------------|
----------------------------------------------------------|
-----------------------------------------------<12>-------|
----------------------------------------------------<12>--|
--3/2--2--2--2--2--2---3/2-3/2--2--2--2--2--2-------------|
--3/2--2--2--2--2--2---3/2-3/2--2--2--2--2--2-------------|

both guitars (play 2x)
---------------------------------------------------------------------|
---------------------------------------------------------------------|
---------------------------------------------------------3p2p0-------|
----------------------3p2p0--------------------3p2p0----------3p2p0--|
--3/2--2--2--2--2--2-------3p2p0--3/2--2--2--2------3p2p0------------|
--3/2--2--2--2--2--2--------------3/2--2--2--2-----------------------|

both guitars (play 1x)
---------------------------------|
------------------------8--------|
------------3p2p0-------9--------|
--3p2p0----------3p2p0--x--------|
-------3p2p0------------7--------|
---------------------------------|

both guitars (play 4x)
------------------------------------------------------------------------------|
------------------------------------------------------------------------------|
------------------------------------------------------------------------------|
------------------------------------------------------------------------------|
-2-----------------2-----------------------2-----------------2----------------|
----3--2--5--3--2-----3--2--5--3--2--0--0-----3--2--5--3--2-----3--0--0--0--0-|

guitar 1 (play 4x)
i can't quite get guitar 2's part... it's too fast and quiet
------------------------------------------------------------------------------------|
------------------------------------------------------------------------------------|
------------------------------------------------------------------------------------|
--9-9-9-9-9-9-9-9-9-9-9-9-9-9-9-9-10-10-10-10-10-10-10-10-10-10-10-10-10-10-10-10---|
--9-9-9-9-9-9-9-9-9-9-9-9-9-9-9-9-10-10-10-10-10-10-10-10-10-10-10-10-10-10-10-10---|
--9-9-9-9-9-9-9-9-9-9-9-9-9-9-9-9-10-10-10-10-10-10-10-10-10-10-10-10-10-10-10-10---|

both guitars (play 2x; same as before)
----------------------------------------------------------|
----------------------------------------------------------|
-----------------------------------------------<12>-------|
----------------------------------------------------<12>--|
--3/2--2--2--2--2--2---3/2-3/2--2--2--2--2--2-------------|
--3/2--2--2--2--2--2---3/2-3/2--2--2--2--2--2-------------|

---------------------------------------------------------------------|
---------------------------------------------------------------------|
---------------------------------------------------------3p2p0-------|
----------------------3p2p0--------------------3p2p0----------3p2p0--|
--3/2--2--2--2--2--2-------3p2p0--3/2--2--2--2------3p2p0------------|
--3/2--2--2--2--2--2--------------3/2--2--2--2-----------------------|

both guitars
-----------------------------------------|
-----------------------------------------|
-----------------------------------------|
----------------------0~-----------------|
--3/2--2--2--2--2--2--0~-----------------|
--3/2--2--2--2--2--2--0~-----------------|

please comment!
ewlord-1492@hotmail.com
Suggest correction
Give kudos to tab author, rate the tab!
1 2 3 4 5
comments
print report bad tab
2 comments total.
0 reply
pyrobonez 87 wrote on December 8 2006, 09:03 pm

looks right to me wewt! i hear a adf tribute comin' on!!

0 reply
mrgoldylocks 86 wrote on December 28 2007, 01:04 pm

HA wow I love this song and this tab is perfect but where you have your harmonics it sounds the same on but that
doesnt really matter

guest
You may want to rate the tab now too:
select rating
Please do not post tabs as comments. Select "correction" instead!