Oops, an error
Loading. Please wait.

Legacy Of Ashes Tab

1,795 views 1 this week
no commentswrite comment
1 2 3 4 5
accurate
x 1
add to favorites
launch autoscroll
font size
0
reset
how to read this tab
guitar tuner
Tab Pro tools
  • play this tab
  • loop segment
  • change instrument
  • show fretboard
  • metronome
Autoscroll
slow
fast
+/-
esc
set tempo
stop
Contributor
www.myspace.com/afaylenesky
this song is in drop D Flat, only got a few parts at the moment will put rest of song up later

h=hammer on
p=pull of
NH=natural harmonic


guitar 1-intro

-------------------------------------------------------------------|
-------------------------------------------------------------------|
-------------------------------------------------------------------|
-------7-7h8----7-7h8----5h7----7-7h8-----7-7h8-------8-7-5--------|
------------------------------------------------------------8------|
----00-------00--------0-----00--------00---------0----------------|

-------------------------------------------------------------------|
-------------------------------------------------------------------|
-------------------------------------------------------------------|
-------7-7h8----7-7h8----5h7----7-7h8-----7-7h8--------------------|
-------------------------------------------------------------------|
----00-------00--------0-----00--------00---------0----5NH---------|


guitar 1 plays exactly the same as above for the next part when guitar 2 joins in

guitar 2

----------------------------------------------------------------------------|
----------------------------------------------------------------------------|
----------------------------------------------------------------------------|
----------------------------------------------------------------------------|
---------8-8h10------8-8h10-----7-7h8---------8-8h10----8-8h10--10-8-7-5----|
----00---------- 00----------0-----------00-----------00--------0-----------|


-------------------------------|
-------------------------------|
-------------------------------|
----8-8h10---8-8h10------------|
-00---------00-------5NH-------|


heavy bit

----------------------------------------------|
----------------------------------------------|
----------------------------------------------|             x4
-00-00000-000000-000000-0000000---------------|
-00-00000-000000-000000-0000000---------------|
-00-00000-000000-000000-0000000---------------|

------------------------|
------------------------|
------------------------|
---7-----5--222-333-----|
--7-----5---222-333-----|    x2
-5-----3----000-111-----|
------------------------|


verser- not sure, i think its a optive above the intro pay around with the harmonic 
scale in d flat and you should get it

chorus - listen to it for rhythm

------------------------------|
------------------------------|
--------3---------------------|
-0------3----3--5-------------|
-0------1----3--5-------------|
-0-----------3--5-------------|


2nd heavy bit

--------------|
--------------|
--------------|
-000--000-000-|
-000--000-000-|
-000--000-000-|


outro is the intro

thats all i can work out

cheers
comments
We did not receive enough feedback on this tab! Please rate:
print report bad tab
1 2 3 4 5
I want to post or [tab]
guest
You may want to rate the tab now too:
select rating
Please do not post tabs as comments. Select "correction" instead!