Oops, an error
Loading. Please wait.

Last Of Days Tab

version 1
version 1

Whole song

4,771 views 3 this week
3 commentsread comments
1 2 3 4 5
accurate
x 5
add to favorites
launch autoscroll
font size
0
reset
how to read this tab
guitar tuner
Autoscroll
slow
fast
+/-
esc
set tempo
stop
Help us to improve Ultimate-Guitar.com Take our survey!
×
Author
Difficulty
novice
----------------------------------------------------------------------------
                          LAST OF DAYS - A Fine Frenzy
----------------------------------------------------------------------------
Tabbed by:sparerib
Email:futrnun@hotmail.com

Tuning:Standard
Intro/Riff x 2
e|-------------------------------------------------------------------------|
B|-------------------------------------------------------------------------|
G|--5-5-4-4-3-3-2-2-0-0-0-0-0-0-0-0----------------------------------------|
D|---7-7-6-6-5-5-4-4-2-2-2-2-2-2-2-2---------------------------------------|
A|-------------------------------------------------------------------------|
E|-------------------------------------------------------------------------|


Intro: D Bm F C G x 2

D                   Bm
something’s causing fear to fly,
F             C
rising like a dark knight 
   G
in silence
D                   Bm       
traffic’s slow with broken boats
F               C
heading for the sky
           G
and I’m an island
  F                              C
I watched you disappear into the clouds
F                       C
swept away into another town


Riff x 1 or D Bm F C G


     Am           G      C
the world carries on without you
    Am        G         C
but nothing remains the same
Am      G        C         Am
I’ll be lost without you
  C       G       C
until the last of days


Riff x 1 or D Bm F C G


D                 Bm
the sun is in the east,
F              C
rising for the beasts 
        G
and the beauties
D             Bm
I wish that I could tear it down, 
F               C              G
plant it in the ground to warm your face
F                              C
I built myself a castle on the beach
F                            C 
watching as it slid into the sea


Riff x 1 or D Bm F C G


    Am            G      C      
the world carries on without you
    Am        G         C
but nothing remains the same
Am      G        C       Am
I’ll be lost without you
C         G       C
until the last of days
Am        G       C
until the last of days

C Am G

        F        C       G
through wars and harvest moons
Am     F        G
I will wait for you.

F C G F C G C

    Am            G      C
the world carries on without you
    Am        G         C
but nothing remains the same
Am      G        C       Am
I’ll be lost without you
C         G       C
until the last of days
Am        G       C
until the last of days

Riff
Suggest correction
What's this?
You can suggest a correction to this tab. Community and Mods will review your correction and vote to approve or reject it.
comments
print report bad tab
3 comments total.
0 reply
Whitney974 17 wrote on June 2 2008, 10:31 pm

really good work on this one, pax.

0 reply
Nika62890 11 wrote on December 4 2008, 10:23 am

The intro is wrong!!!

0 reply
Utzibutzi 126 wrote on August 11 2009, 10:13 am

yeah the intro's wrong,...

its ---------------------------------------
---------------------------------------
-5-5--4-4--3-3--2-2--0-----------------
--7-7--5-5--5-5--3-3-------------------
---------------------------------------
---------------------------------------

guest
You may want to rate the tab now too:
select rating
Please do not post tabs as comments. Select "correction" instead!