Oops, an error
Loading. Please wait.

I Ran bass

version 2
version 2

Whole song

  • The Key signature is A major... The official video... Show more
1,041 views 15 this week
no commentswrite comment
1 2 3 4 5
x 6
add to favorites
×
Save as Personal and add changes to this tab that will be seen only by you. Learn more ›
×
You can save this tab as Personal to edit and correct it or add notes. All changes will be seen only by you. Learn more »
launch autoscroll
font size
0
reset
guitar tuner
edit
Autoscroll
slow
fast
+/-
esc
set tempo
stop
Author
Difficulty
-----------------------------------------------------------------------------
                                          Artist - Flock Of Seagulls
                                         ****************************
                                          Song - I Ran (So Far Away)
                                         ****************************
                                       Album - Flock Of Seagulls (1982)  
                                      **********************************
                                             Tabbed By - Ayreon77
                                            **********************
-----------------------------------------------------------------------------
Tuning = Standard


INTRO
******
G|----------|----------|-----------|--------------|
D|----------|----------|-----------|------5--3--5-|
A|----------|----------|-----------|--------------|
E|-5~~~~~~~-|-3~~~~~~~-|-5~~~~~~~~-|-3~~~---------|


00:44
G|-------------|-------------|-------------|-------------|
D|-------------|-------------|-------------|-------------|
A|-------------|-------------|-------------|-------------|
E|-5-5-5-0-5-0-|-5-5-5-0-5-0-|-3-3-3-0-3-0-|-3-3-3-0-3-0-|


G|-------------|-------------|-------------|-------------|
D|-------------|-------------|-------------|-------------|
A|-------------|-------------|-------------|-------------|
E|-5-5-5-0-5-0-|-5-5-5-0-5-0-|-3-3-3-0-3-0-|-3-3-3-0-3-0-|


G|-------------|-------------|-------------|-------------|
D|-------------|-------------|-------------|-------------|
A|-------------|-------------|-------------|-------------|
E|-1-1-1-0-1-0-|-1-1-1-0-1-0-|-3-3-3-0-3-0-|-3-3-3-0-3-0-|


01:03
G|-----------------|-----------------|-----------------|-----------------|
D|-----------------|-----------------|-----------------|-----------------|
A|-----------------|-----------------|-----------------|-----------------|
E|-5-5-5-5-5-5-5-0-|-5-5-5-5-5-5-5-0-|-5-5-5-5-5-5-5-0-|-5-5-5-5-5-5-5-0-|


G|-----------------|-----------------|-----------------|-----------------|
D|-----------------|-----------------|-----------------|-----------------|
A|-----------------|-----------------|-----------------|-----------------|
E|-5-5-5-5-5-5-5-0-|-5-5-5-5-5-5-5-0-|-3-3-3-3-3-3-3-0-|-3-3-3-3-3-3-3-0-|


G|-----------------|-----------------|-----------------|-----------------|
D|-----------------|-----------------|-----------------|-----------------|
A|-----------------|-----------------|-----------------|-----------------|
E|-5-5-5-5-5-5-5-0-|-5-5-5-5-5-5-5-0-|-3-3-3-3-3-3-3-0-|-3-3-3-3-3-3-3-0-|


G|-----------------|-----------------|-----------------|-----------------|
D|-----------------|-----------------|-----------------|-----------------|
A|-----------------|-----------------|-----------------|-----------------|
E|-1-1-1-1-1-1-1-0-|-1-1-1-1-1-1-1-0-|-3-3-3-3-3-3-3-0-|-3-3-3-3-3-3-3-0-|


G|-----------------|-----------------|-----------------|-----------------|
D|-----------------|-----------------|-----------------|-----------------|
A|-----------------|-----------------|-----------------|-----------------|
E|-5-5-5-5-5-5-5-0-|-5-5-5-5-5-5-5-0-|-5-5-5-5-5-5-5-0-|-5-5-5-5-5-5-5-0-|


-----------------------
VERSE 1
********
G|-----------------|-----------------|-----------------|-----------------|\
D|-----------------|-----------------|-----------------|-----------------| \
A|-----------------|-----------------|-----------------|-----------------|  \
E|-5-5-5-5-5-5-5-0-|-5-5-5-5-5-5-5-0-|-5-5-5-5-5-5-5-0-|-5-5-5-5-5-5-5-0-|   \
                                                                             X
                                                                             2
G|-----------------|-----------------|-----------------|-----------------|   /
D|-----------------|-----------------|-----------------|-----------------|  /
A|-----------------|-----------------|-----------------|-----------------| /
E|-3-3-3-3-3-3-3-0-|-3-3-3-3-3-3-3-0-|-3-3-3-3-3-3-3-0-|-3-3-3-3-3-3-3-0-|/


-----------------------
CHORUS
*******
G|-----------------------------|-----------------------------|
D|-----------------------------|-----------------------------|
A|-----------------------------|-----------------------------|
E|-1-1--1-1-1--1-1-1--1-1-1--1-|-3-3--3-3-3--3-3-3--3-3-3--3-|


G|-----------------------------|---------------|
D|-----------------------------|---------------|
A|-----------------------------|---------------|
E|-1-1--1-1-1--1-1-1--1-1-1--1-|-3-3--3-3-3--3-|


-----------------------
BREAK
******
G|-----------------|-----------------|-----------------|-----------------|
D|-----------------|-----------------|-----------------|-----------------|
A|-----------------|-----------------|-----------------|-----------------|
E|-5-5-5-5-5-5-5-0-|-5-5-5-5-5-5-5-0-|-3-3-3-3-3-3-3-0-|-3-3-3-3-3-3-3-0-|X2


-----------------------
VERSE 2
********
G|-----------------|-----------------|-----------------|-----------------|\
D|-----------------|-----------------|-----------------|-----------------| \
A|-----------------|-----------------|-----------------|-----------------|  \
E|-5-5-5-5-5-5-5-0-|-5-5-5-5-5-5-5-0-|-5-5-5-5-5-5-5-0-|-5-5-5-5-5-5-5-0-|   \
                                                                             X
                                                                             2
G|-----------------|-----------------|-----------------|-----------------|   /
D|-----------------|-----------------|-----------------|-----------------|  /
A|-----------------|-----------------|-----------------|-----------------| /
E|-3-3-3-3-3-3-3-0-|-3-3-3-3-3-3-3-0-|-3-3-3-3-3-3-3-0-|-3-3-3-3-3-3-3-0-|/


-----------------------
CHORUS
*******
G|-----------------------------|-----------------------------|
D|-----------------------------|-----------------------------|
A|-----------------------------|-----------------------------|
E|-1-1--1-1-1--1-1-1--1-1-1--1-|-3-3--3-3-3--3-3-3--3-3-3--3-|


G|-----------------------------|---------------|
D|-----------------------------|---------------|
A|-----------------------------|---------------|
E|-1-1--1-1-1--1-1-1--1-1-1--1-|-3-3--3-3-3--3-|


-----------------------
03:08
BREAK
******
G|------------------|------------------|------------------|------------------|
D|------------------|------------------|------------------|------------------|
A|-3333333333333333-|-3333333333333333-|-3333333333333333-|-3333333333333333-|
E|------------------|------------------|------------------|------------------|


GUITAR SOLO
************
G|-----------------|-----------------|-----------------|-----------------|
D|-----------------|-----------------|-----------------|-----------------|
A|-----------------|-----------------|-----------------|-----------------|
E|-5-5-5-5-5-5-5-0-|-5-5-5-5-5-5-5-0-|-3-3-3-3-3-3-3-0-|-3-3-3-3-3-3-3-0-|X2


G|-----------------|-----------------|-----------------|---|
D|-----------------|-----------------|-----------------|---|
A|-----------------|-----------------|-----------------|---|
E|-1-1-1-1-1-1-1-0-|-1-1-1-1-1-1-1-0-|-3-3-3-3-3-3-3-0-|-3-|X2
                                                         |
                                                         play this on the last time.


-----------------------
VERSE 2
********
G|-----------------|-----------------|-----------------|-----------------|\
D|-----------------|-----------------|-----------------|-----------------| \
A|-----------------|-----------------|-----------------|-----------------|  \
E|-5-5-5-5-5-5-5-0-|-5-5-5-5-5-5-5-0-|-5-5-5-5-5-5-5-0-|-5-5-5-5-5-5-5-0-|   \
                                                                             X
                                                                             2
G|-----------------|-----------------|-----------------|-----------------|   /
D|-----------------|-----------------|-----------------|-----------------|  /
A|-----------------|-----------------|-----------------|-----------------| /
E|-3-3-3-3-3-3-3-0-|-3-3-3-3-3-3-3-0-|-3-3-3-3-3-3-3-0-|-3-3-3-3-3-3-3-0-|/


-----------------------
CHORUS
*******
G|-----------------------------|-----------------------------|
D|-----------------------------|-----------------------------|
A|-----------------------------|-----------------------------|
E|-1-1--1-1-1--1-1-1--1-1-1--1-|-3-3--3-3-3--3-3-3--3-3-3--3-|X4
                                             on the 4th time do the short one
 
-----------------------
04:34
OUTRO
******
G|-------------|---------|------------------|------------------|
D|--s----------|---------|------------------|------------------|
A|-8\-88888888-|88888888-|-1010101010101010-|-1010101010101010-|
E|-------------|---------|------------------|------------------|


G|----------|----------|------------------|------------------|
D|----------|----------|------------------|------------------|
A|-88888888-|-88888888-|-1010101010101010-|-1010101010101010-|
E|----------|----------|------------------|------------------|


G|------------------|------------------|------------------|------------------|
D|------------------|------------------|------------------|------------------|
A|-1212121212121212-|-1212121212121212-|-1010101010101010-|-1010101010101010-|
E|------------------|------------------|------------------|------------------|


G|------------------|------------------|------------------|-----------|-----------|
D|------------------|------------------|------------------|-----------|-----------|
A|-1212121212121212-|-1212121212121212-|-1010101010101010-|-10~~~~~~~-|-12~~~~~~~-|
E|------------------|------------------|------------------|-----------|-----------|


ENJOY.............

            
            
Suggest correction
Creating personal tab
Creating personal tab
You can edit any tab online and save it as your Personal.

You can edit, replace or remove any tab part or add personal notes – all changes will be seen only by you.

Personal tabs can be accessed anytime from any device, even offline.
Learn more »
comments
print report bad tab
guest
You may want to rate the tab now too:
select rating
Wanna post a correction for this tab? Suggest correction