Oops, an error
Loading. Please wait.

Ill Come Crashing tab

version 1
version 1

Whole song

  • Whole tab written for 2 guitars.

Interactive

283 views 3 this week
no commentswrite comment
1 2 3 4 5
3 more votes to show rating
add to favorites
×
Save as Personal and add changes to this tab that will be seen only by you. Learn more ›
×
You can save this tab as Personal to edit and correct it or add notes. All changes will be seen only by you. Learn more »
launch autoscroll
font size
0
reset
how to read this tab
guitar tuner
edit
Autoscroll
slow
fast
+/-
esc
set tempo
stop
About this tab version
Whole tab written for 2 guitars. Was this info helpful? Yes No
Title: I'll Come Crashing
Artist: A Giant Dog
Album: Pile
Words: A Giant Dog
Music: A Giant Dog
Tabber: lego_alien
Tempo = 160
Time signature: 4/4

[Intro]

[GUITAR 1]

e|--5-----5-----5-----5-------|--5-----5-----5-----5-------|
B|--6-----6-----6-----6-------|--6-----6-----6-----6-------|
G|--7-----7-----7-----7-------|--7-----7-----7-----7-------|
D|--7-----7-----7-----7-------|--7-----7-----7-----7-------|
A|--5-----5-----5-----5-------|--5-----5-----5-----5-------|
E|----------------------------|----------------------------|

e|--5-----5-----5-----5-------|--5-----5-----5-----5-------|
B|--6-----6-----6-----6-------|--6-----6-----6-----6-------|
G|--7-----7-----7-----7-------|--7-----7-----7-----7-------|
D|--7-----7-----7-----7-------|--7-----7-----7-----7-------|
A|--5-----5-----5-----5-------|--5-----5-----5-----5-------|
E|----------------------------|----------------------------|

[Verse 1]

[GUITAR 1]

e|--5-----5-----5-----5-------|--5-----5-----5-----5-------|
B|--6-----6-----6-----6-------|--6-----6-----6-----6-------|
G|--7-----7-----7-----7-------|--7-----7-----7-----7-------|
D|--7-----7-----7-----7-------|--7-----7-----7-----7-------|
A|--5-----5-----5-----5-------|--5-----5-----5-----5-------|
E|----------------------------|----------------------------|

e|--5-----5-----5-----5-------|--5-----5-----5-----5-------|
B|--6-----6-----6-----6-------|--6-----6-----6-----6-------|
G|--7-----7-----7-----7-------|--7-----7-----7-----7-------|
D|--7-----7-----7-----7-------|--7-----7-----7-----7-------|
A|--5-----5-----5-----5-------|--5-----5-----5-----5-------|
E|----------------------------|----------------------------|

e|--5-----5-----5-----5-------|--5-----5-----5-----5-------|
B|--6-----6-----6-----6-------|--6-----6-----6-----6-------|
G|--7-----7-----7-----7-------|--7-----7-----7-----7-------|
D|--7-----7-----7-----7-------|--7-----7-----7-----7-------|
A|--5-----5-----5-----5-------|--5-----5-----5-----5-------|
E|----------------------------|----------------------------|

e|--5-----5-----5-----5-------|--5-----5-----5-----5-------|
B|--6-----6-----6-----6-------|--6-----6-----6-----6-------|
G|--7-----7-----7-----7-------|--7-----7-----7-----7-------|
D|--7-----7-----7-----7-------|--7-----7-----7-----7-------|
A|--5-----5-----5-----5-------|--5-----5-----5-----5-------|
E|----------------------------|----------------------------|

e|--5-----5-----5-----5-------|--5-----5-----5-----5-------|
B|--6-----6-----6-----6-------|--6-----6-----6-----6-------|
G|--7-----7-----7-----7-------|--7-----7-----7-----7-------|
D|--7-----7-----7-----7-------|--7-----7-----7-----7-------|
A|--5-----5-----5-----5-------|--5-----5-----5-----5-------|
E|----------------------------|----------------------------|

e|--5-----5-----5-----5-------|--5-----5-----5-----5-------|
B|--6-----6-----6-----6-------|--6-----6-----6-----6-------|
G|--7-----7-----7-----7-------|--7-----7-----7-----7-------|
D|--7-----7-----7-----7-------|--7-----7-----7-----7-------|
A|--5-----5-----5-----5-------|--5-----5-----5-----5-------|
E|----------------------------|----------------------------|

e|--5-----5-----5-----5-------|--5-----5-----5-----5-------|
B|--6-----6-----6-----6-------|--6-----6-----6-----6-------|
G|--7-----7-----7-----7-------|--7-----7-----7-----7-------|
D|--7-----7-----7-----7-------|--7-----7-----7-----7-------|
A|--5-----5-----5-----5-------|--5-----5-----5-----5-------|
E|----------------------------|----------------------------|

e|--5-----5-----5-----5-------|--5-----5-----5-----5-------|
B|--6-----6-----6-----6-------|--6-----6-----6-----6-------|
G|--7-----7-----7-----7-------|--7-----7-----7-----7-------|
D|--7-----7-----7-----7-------|--7-----7-----7-----7-------|
A|--5-----5-----5-----5-------|--5-----5-----5-----5-------|
E|----------------------------|----------------------------|

e|--5-----5-----5-----5-------|--5-----5-----5-----5-------|
B|--6-----6-----6-----6-------|--6-----6-----6-----6-------|
G|--7-----7-----7-----7-------|--7-----7-----7-----7-------|
D|--7-----7-----7-----7-------|--7-----7-----7-----7-------|
A|--5-----5-----5-----5-------|--5-----5-----5-----5-------|
E|----------------------------|----------------------------|

e|--5-----5-----5-----5-------|--5-----5-----5-----5-------|
B|--6-----6-----6-----6-------|--6-----6-----6-----6-------|
G|--7-----7-----7-----7-------|--7-----7-----7-----7-------|
D|--7-----7-----7-----7-------|--7-----7-----7-----7-------|
A|--5-----5-----5-----5-------|--5-----5-----5-----5-------|
E|----------------------------|----------------------------|

e|--5-----5-----5-----5-------|--5-----5-----5-----5-------|
B|--6-----6-----6-----6-------|--6-----6-----6-----6-------|
G|--7-----7-----7-----7-------|--7-----7-----7-----7-------|
D|--7-----7-----7-----7-------|--7-----7-----7-----7-------|
A|--5-----5-----5-----5-------|--5-----5-----5-----5-------|
E|----------------------------|----------------------------|

e|--5-----5-----5-----5-------|--5-----5-----5-----5-------|
B|--6-----6-----6-----6-------|--6-----6-----6-----6-------|
G|--7-----7-----7-----7-------|--7-----7-----7-----7-------|
D|--7-----7-----7-----7-------|--7-----7-----7-----7-------|
A|--5-----5-----5-----5-------|--5-----5-----5-----5-------|
E|----------------------------|----------------------------|


[GUITAR 2]

e|----------------------------|----------------------------|
B|----------------------------|----------------------------|
G|----------------------------|----------------------------|
D|----------------------------|----------------------------|
A|--5--5--5--5--5--5--5--5----|----------------------------|
E|----------------------------|--1--1--1--1--1--1--1--1----|

e|----------------------------|----------------------------|
B|----------------------------|----------------------------|
G|----------------------------|----------------------------|
D|----------------------------|----------------------------|
A|----------------------------|--5--5--5--5--5--5--5--5----|
E|--0--0--0--0--0--0--0--0----|----------------------------|

e|----------------------------|----------------------------|
B|----------------------------|----------------------------|
G|----------------------------|----------------------------|
D|----------------------------|----------------------------|
A|--5--5--5--5--5--5--5--5----|----------------------------|
E|----------------------------|--1--1--1--1--1--1--1--1----|

e|----------------------------|----------------------------|
B|----------------------------|----------------------------|
G|----------------------------|----------------------------|
D|--2--2--2--2--2--2--2--2----|----------------------------|
A|----------------------------|----------------------------|
E|----------------------------|--1--3--1--1--1--3--1--1----|

e|----------------------------|----------------------------|
B|----------------------------|----------------------------|
G|----------------------------|----------------------------|
D|----------------------------|----------------------------|
A|--5--5--5--5--5--5--5--5----|----------------------------|
E|----------------------------|--1--1--1--1--1--1--1--1----|

e|----------------------------|----------------------------|
B|----------------------------|----------------------------|
G|----------------------------|----------------------------|
D|----------------------------|----------------------------|
A|----------------------------|--5--5--5--5--5--5--5--5----|
E|--0--0--0--0--0--0--0--0----|----------------------------|

e|----------------------------|----------------------------|
B|----------------------------|----------------------------|
G|----------------------------|----------------------------|
D|----------------------------|----------------------------|
A|--5--5--5--5--5--5--5--5----|----------------------------|
E|----------------------------|--1--1--1--1--1--1--1--1----|

e|----------------------------|----------------------------|
B|----------------------------|----------------------------|
G|----------------------------|----------------------------|
D|--2--2--2--2--2--2--2--2----|----------------------------|
A|----------------------------|----------------------------|
E|----------------------------|--1--3--1--1--1--3--1--1----|

e|----------------------------|----------------------------|
B|----------------------------|----------------------------|
G|----------------------------|----------------------------|
D|----------------------------|----------------------------|
A|--5--5--5--5--5--5--5--5----|----------------------------|
E|----------------------------|--1--1--1--1--1--1--1--1----|

e|----------------------------|----------------------------|
B|----------------------------|----------------------------|
G|----------------------------|----------------------------|
D|----------------------------|----------------------------|
A|----------------------------|--5--5--5--5--5--5--5--5----|
E|--0--0--0--0--0--0--0--0----|----------------------------|

e|----------------------------|----------------------------|
B|----------------------------|----------------------------|
G|----------------------------|----------------------------|
D|----------------------------|----------------------------|
A|--5--5--5--5--5--5--5--5----|----------------------------|
E|----------------------------|--1--1--1--1--1--1--1--1----|

e|----------------------------|----------------------------|
B|----------------------------|----------------------------|
G|----------------------------|----------------------------|
D|--2--2--2--2--2--2--2--2----|----------------------------|
A|----------------------------|----------------------------|
E|----------------------------|--1--3--1--1--1--3--1--1----|

[Chorus 1]

[GUITAR 1 and 2]

e|----------------|----------------|----------------|--0--0--0--0----|
B|--3--3--3--3----|----------------|----------------|--2--2--2--2----|
G|--2--2--2--2----|----------------|--3--3--3--3----|--2--2--2--2----|
D|--0--0--0--0----|--3--3--3--3----|--3--3--3--3----|--2--2--2--2----|
A|----------------|--3--3--3--3----|--1--1--1--1----|--0--0--0--0----|
E|----------------|--1--1--1--1----|----------------|----------------|

e|----------------|----------------|----------------|--0--0--0--0----|
B|--3--3--3--3----|----------------|----------------|--2--2--2--2----|
G|--2--2--2--2----|----------------|--3--3--3--3----|--2--2--2--2----|
D|--0--0--0--0----|--3--3--3--3----|--3--3--3--3----|--2--2--2--2----|
A|----------------|--3--3--3--3----|--1--1--1--1----|--0--0--0--0----|
E|----------------|--1--1--1--1----|----------------|----------------|

e|----------------|----------------|----------------|--0--0--0--0----|
B|--3--3--3--3----|----------------|----------------|--2--2--2--2----|
G|--2--2--2--2----|----------------|--3--3--3--3----|--2--2--2--2----|
D|--0--0--0--0----|--3--3--3--3----|--3--3--3--3----|--2--2--2--2----|
A|----------------|--3--3--3--3----|--1--1--1--1----|--0--0--0--0----|
E|----------------|--1--1--1--1----|----------------|----------------|

e|--3--3--3--3----|--3--3--3--3----|----------------|----------------|
B|--3--3--3--3----|--3--3--3--3----|--5--5--5--5----|--5--5--5--5----|
G|--4--4--4--4----|--4--4--4--4----|--6--6--6--6----|--6--6--6--6----|
D|--5--5--5--5----|--5--5--5--5----|--7--7--7--7----|--7--7--7--7----|
A|--5--5--5--5----|--5--5--5--5----|--7--7--7--7----|--7--7--7--7----|
E|--3--3--3--3----|--3--3--3--3----|--5--5--5--5----|--5--5--5--5----|

[Verse 2]

[GUITAR 1]

e|--5-----5-----5-----5-------|--5-----5-----5-----5-------|
B|--6-----6-----6-----6-------|--6-----6-----6-----6-------|
G|--7-----7-----7-----7-------|--7-----7-----7-----7-------|
D|--7-----7-----7-----7-------|--7-----7-----7-----7-------|
A|--5-----5-----5-----5-------|--5-----5-----5-----5-------|
E|----------------------------|----------------------------|

e|--5-----5-----5-----5-------|--5-----5-----5-----5-------|
B|--6-----6-----6-----6-------|--6-----6-----6-----6-------|
G|--7-----7-----7-----7-------|--7-----7-----7-----7-------|
D|--7-----7-----7-----7-------|--7-----7-----7-----7-------|
A|--5-----5-----5-----5-------|--5-----5-----5-----5-------|
E|----------------------------|----------------------------|

e|--5-----5-----5-----5-------|--5-----5-----5-----5-------|
B|--6-----6-----6-----6-------|--6-----6-----6-----6-------|
G|--7-----7-----7-----7-------|--7-----7-----7-----7-------|
D|--7-----7-----7-----7-------|--7-----7-----7-----7-------|
A|--5-----5-----5-----5-------|--5-----5-----5-----5-------|
E|----------------------------|----------------------------|

e|--5-----5-----5-----5-------|--5-----5-----5-----5-------|
B|--6-----6-----6-----6-------|--6-----6-----6-----6-------|
G|--7-----7-----7-----7-------|--7-----7-----7-----7-------|
D|--7-----7-----7-----7-------|--7-----7-----7-----7-------|
A|--5-----5-----5-----5-------|--5-----5-----5-----5-------|
E|----------------------------|----------------------------|

e|--5-----5-----5-----5-------|--5-----5-----5-----5-------|
B|--6-----6-----6-----6-------|--6-----6-----6-----6-------|
G|--7-----7-----7-----7-------|--7-----7-----7-----7-------|
D|--7-----7-----7-----7-------|--7-----7-----7-----7-------|
A|--5-----5-----5-----5-------|--5-----5-----5-----5-------|
E|----------------------------|----------------------------|

e|--5-----5-----5-----5-------|--5-----5-----5-----5-------|
B|--6-----6-----6-----6-------|--6-----6-----6-----6-------|
G|--7-----7-----7-----7-------|--7-----7-----7-----7-------|
D|--7-----7-----7-----7-------|--7-----7-----7-----7-------|
A|--5-----5-----5-----5-------|--5-----5-----5-----5-------|
E|----------------------------|----------------------------|

e|--5-----5-----5-----5-------|--5-----5-----5-----5-------|
B|--6-----6-----6-----6-------|--6-----6-----6-----6-------|
G|--7-----7-----7-----7-------|--7-----7-----7-----7-------|
D|--7-----7-----7-----7-------|--7-----7-----7-----7-------|
A|--5-----5-----5-----5-------|--5-----5-----5-----5-------|
E|----------------------------|----------------------------|

e|--5-----5-----5-----5-------|--5-----5-----5-----5-------|
B|--6-----6-----6-----6-------|--6-----6-----6-----6-------|
G|--7-----7-----7-----7-------|--7-----7-----7-----7-------|
D|--7-----7-----7-----7-------|--7-----7-----7-----7-------|
A|--5-----5-----5-----5-------|--5-----5-----5-----5-------|
E|----------------------------|----------------------------|

e|--5-----5-----5-----5-------|--5-----5-----5-----5-------|
B|--6-----6-----6-----6-------|--6-----6-----6-----6-------|
G|--7-----7-----7-----7-------|--7-----7-----7-----7-------|
D|--7-----7-----7-----7-------|--7-----7-----7-----7-------|
A|--5-----5-----5-----5-------|--5-----5-----5-----5-------|
E|----------------------------|----------------------------|

e|--5-----5-----5-----5-------|--5-----5-----5-----5-------|
B|--6-----6-----6-----6-------|--6-----6-----6-----6-------|
G|--7-----7-----7-----7-------|--7-----7-----7-----7-------|
D|--7-----7-----7-----7-------|--7-----7-----7-----7-------|
A|--5-----5-----5-----5-------|--5-----5-----5-----5-------|
E|----------------------------|----------------------------|

e|--5-----5-----5-----5-------|--5-----5-----5-----5-------|
B|--6-----6-----6-----6-------|--6-----6-----6-----6-------|
G|--7-----7-----7-----7-------|--7-----7-----7-----7-------|
D|--7-----7-----7-----7-------|--7-----7-----7-----7-------|
A|--5-----5-----5-----5-------|--5-----5-----5-----5-------|
E|----------------------------|----------------------------|

e|--5-----5-----5-----5-------|--5-----5-----5-----5-------|
B|--6-----6-----6-----6-------|--6-----6-----6-----6-------|
G|--7-----7-----7-----7-------|--7-----7-----7-----7-------|
D|--7-----7-----7-----7-------|--7-----7-----7-----7-------|
A|--5-----5-----5-----5-------|--5-----5-----5-----5-------|
E|----------------------------|----------------------------|

[GUITAR 2]

e|----------------------------|----------------------------|
B|----------------------------|----------------------------|
G|----------------------------|----------------------------|
D|----------------------------|----------------------------|
A|--5--5--5--5--5--5--5--5----|----------------------------|
E|----------------------------|--1--1--1--1--1--1--1--1----|

e|----------------------------|----------------------------|
B|----------------------------|----------------------------|
G|----------------------------|----------------------------|
D|----------------------------|----------------------------|
A|----------------------------|--5--5--5--5--5--5--5--5----|
E|--0--0--0--0--0--0--0--0----|----------------------------|

e|----------------------------|----------------------------|
B|----------------------------|----------------------------|
G|----------------------------|----------------------------|
D|----------------------------|----------------------------|
A|--5--5--5--5--5--5--5--5----|----------------------------|
E|----------------------------|--1--1--1--1--1--1--1--1----|

e|----------------------------|----------------------------|
B|----------------------------|----------------------------|
G|----------------------------|----------------------------|
D|--2--2--2--2--2--2--2--2----|----------------------------|
A|----------------------------|----------------------------|
E|----------------------------|--1--3--1--1--1--3--1--1----|

e|----------------------------|----------------------------|
B|----------------------------|----------------------------|
G|----------------------------|----------------------------|
D|----------------------------|----------------------------|
A|--5--5--5--5--5--5--5--5----|----------------------------|
E|----------------------------|--1--1--1--1--1--1--1--1----|

e|----------------------------|----------------------------|
B|----------------------------|----------------------------|
G|----------------------------|----------------------------|
D|----------------------------|----------------------------|
A|----------------------------|--5--5--5--5--5--5--5--5----|
E|--0--0--0--0--0--0--0--0----|----------------------------|

e|----------------------------|----------------------------|
B|----------------------------|----------------------------|
G|----------------------------|----------------------------|
D|----------------------------|----------------------------|
A|--5--5--5--5--5--5--5--5----|----------------------------|
E|----------------------------|--1--1--1--1--1--1--1--1----|

e|----------------------------|----------------------------|
B|----------------------------|----------------------------|
G|----------------------------|----------------------------|
D|--2--2--2--2--2--2--2--2----|----------------------------|
A|----------------------------|----------------------------|
E|----------------------------|--1--3--1--1--1--3--1--1----|

e|----------------------------|----------------------------|
B|----------------------------|----------------------------|
G|----------------------------|----------------------------|
D|----------------------------|----------------------------|
A|--5--5--5--5--5--5--5--5----|----------------------------|
E|----------------------------|--1--1--1--1--1--1--1--1----|

e|----------------------------|----------------------------|
B|----------------------------|----------------------------|
G|----------------------------|----------------------------|
D|----------------------------|----------------------------|
A|----------------------------|--5--5--5--5--5--5--5--5----|
E|--0--0--0--0--0--0--0--0----|----------------------------|

e|----------------------------|----------------------------|
B|----------------------------|----------------------------|
G|----------------------------|----------------------------|
D|----------------------------|----------------------------|
A|--5--5--5--5--5--5--5--5----|----------------------------|
E|----------------------------|--1--1--1--1--1--1--1--1----|

e|----------------------------|----------------------------|
B|----------------------------|----------------------------|
G|----------------------------|----------------------------|
D|--2--2--2--2--2--2--2--2----|----------------------------|
A|----------------------------|----------------------------|
E|----------------------------|--1--3--1--1--1--3--1--1----|

[Chorus 2]

[GUITAR 1 and 2]

e|----------------|----------------|----------------|--0--0--0--0----|
B|--3--3--3--3----|----------------|----------------|--2--2--2--2----|
G|--2--2--2--2----|----------------|--3--3--3--3----|--2--2--2--2----|
D|--0--0--0--0----|--3--3--3--3----|--3--3--3--3----|--2--2--2--2----|
A|----------------|--3--3--3--3----|--1--1--1--1----|--0--0--0--0----|
E|----------------|--1--1--1--1----|----------------|----------------|

e|----------------|----------------|----------------|--0--0--0--0----|
B|--3--3--3--3----|----------------|----------------|--2--2--2--2----|
G|--2--2--2--2----|----------------|--3--3--3--3----|--2--2--2--2----|
D|--0--0--0--0----|--3--3--3--3----|--3--3--3--3----|--2--2--2--2----|
A|----------------|--3--3--3--3----|--1--1--1--1----|--0--0--0--0----|
E|----------------|--1--1--1--1----|----------------|----------------|

e|----------------|----------------|----------------|--0--0--0--0----|
B|--3--3--3--3----|----------------|----------------|--2--2--2--2----|
G|--2--2--2--2----|----------------|--3--3--3--3----|--2--2--2--2----|
D|--0--0--0--0----|--3--3--3--3----|--3--3--3--3----|--2--2--2--2----|
A|----------------|--3--3--3--3----|--1--1--1--1----|--0--0--0--0----|
E|----------------|--1--1--1--1----|----------------|----------------|

e|--3--3--3--3----|--3--3--3--3----|----------------|----------------|
B|--3--3--3--3----|--3--3--3--3----|--5--5--5--5----|--5--5--5--5----|
G|--4--4--4--4----|--4--4--4--4----|--6--6--6--6----|--6--6--6--6----|
D|--5--5--5--5----|--5--5--5--5----|--7--7--7--7----|--7--7--7--7----|
A|--5--5--5--5----|--5--5--5--5----|--7--7--7--7----|--7--7--7--7----|
E|--3--3--3--3----|--3--3--3--3----|--5--5--5--5----|--5--5--5--5----|

e|----------------|----------------|----------------|--0--0--0--0----|
B|--3--3--3--3----|----------------|----------------|--2--2--2--2----|
G|--2--2--2--2----|----------------|--3--3--3--3----|--2--2--2--2----|
D|--0--0--0--0----|--3--3--3--3----|--3--3--3--3----|--2--2--2--2----|
A|----------------|--3--3--3--3----|--1--1--1--1----|--0--0--0--0----|
E|----------------|--1--1--1--1----|----------------|----------------|

e|--3--3--3--3----|--3--3--3--3----|----------------|----------------|
B|--3--3--3--3----|--3--3--3--3----|--5--5--5--5----|--5--5--5--5----|
G|--4--4--4--4----|--4--4--4--4----|--6--6--6--6----|--6--6--6--6----|
D|--5--5--5--5----|--5--5--5--5----|--7--7--7--7----|--7--7--7--7----|
A|--5--5--5--5----|--5--5--5--5----|--7--7--7--7----|--7--7--7--7----|
E|--3--3--3--3----|--3--3--3--3----|--5--5--5--5----|--5--5--5--5----|

[Bridge]

[GUITAR 1 and 2]

e|----|----|----|----|
B|----|----|----|----|
G|----|----|----|----|
D|----|----|----|----|
A|----|----|----|----|
E|----|----|----|----|

e|--3-----3-----3-----3-------|--3-----3-----3-----3-------|
B|--3-----3-----3-----3-------|--3-----3-----3-----3-------|
G|--4-----4-----4-----4-------|--4-----4-----4-----4-------|
D|--5-----5-----5-----5-------|--5-----5-----5-----5-------|
A|--5-----5-----5-----5-------|--5-----5-----5-----5-------|
E|--3-----3-----3-----3-------|--3-----3-----3-----3-------|

e|--3-----3-----3-----3-------|--3-----3-----3-----3-------|
B|--3-----3-----3-----3-------|--3-----3-----3-----3-------|
G|--4-----4-----4-----4-------|--4-----4-----4-----4-------|
D|--5-----5-----5-----5-------|--5-----5-----5-----5-------|
A|--5-----5-----5-----5-------|--5-----5-----5-----5-------|
E|--3-----3-----3-----3-------|--3-----3-----3-----3-------|

e|--5-----5-----5-----5-------|--5-----5-----5-----5-------|
B|--6-----6-----6-----6-------|--6-----6-----6-----6-------|
G|--7-----7-----7-----7-------|--7-----7-----7-----7-------|
D|--7-----7-----7-----7-------|--7-----7-----7-----7-------|
A|--5-----5-----5-----5-------|--5-----5-----5-----5-------|
E|----------------------------|----------------------------|

e|--5-----5-----5-----5-------|--5-----5-----5-----5-------|
B|--6-----6-----6-----6-------|--6-----6-----6-----6-------|
G|--7-----7-----7-----7-------|--7-----7-----7-----7-------|
D|--7-----7-----7-----7-------|--7-----7-----7-----7-------|
A|--5-----5-----5-----5-------|--5-----5-----5-----5-------|
E|----------------------------|----------------------------|

e|--3-----3-----3-----3-------|--3-----3-----3-----3-------|
B|--3-----3-----3-----3-------|--3-----3-----3-----3-------|
G|--4-----4-----4-----4-------|--4-----4-----4-----4-------|
D|--5-----5-----5-----5-------|--5-----5-----5-----5-------|
A|--5-----5-----5-----5-------|--5-----5-----5-----5-------|
E|--3-----3-----3-----3-------|--3-----3-----3-----3-------|

e|--3-----3-----3-----3-------|--3-----3-----3-----3-------|
B|--3-----3-----3-----3-------|--3-----3-----3-----3-------|
G|--4-----4-----4-----4-------|--4-----4-----4-----4-------|
D|--5-----5-----5-----5-------|--5-----5-----5-----5-------|
A|--5-----5-----5-----5-------|--5-----5-----5-----5-------|
E|--3-----3-----3-----3-------|--3-----3-----3-----3-------|

[Chorus 3]

[GUITAR 1 and 2]

e|----------------|----------------|----------------|--0--0--0--0----|
B|--3--3--3--3----|----------------|----------------|--2--2--2--2----|
G|--2--2--2--2----|----------------|--3--3--3--3----|--2--2--2--2----|
D|--0--0--0--0----|--3--3--3--3----|--3--3--3--3----|--2--2--2--2----|
A|----------------|--3--3--3--3----|--1--1--1--1----|--0--0--0--0----|
E|----------------|--1--1--1--1----|----------------|----------------|

e|----------------|----------------|----------------|--0--0--0--0----|
B|--3--3--3--3----|----------------|----------------|--2--2--2--2----|
G|--2--2--2--2----|----------------|--3--3--3--3----|--2--2--2--2----|
D|--0--0--0--0----|--3--3--3--3----|--3--3--3--3----|--2--2--2--2----|
A|----------------|--3--3--3--3----|--1--1--1--1----|--0--0--0--0----|
E|----------------|--1--1--1--1----|----------------|----------------|

e|----------------|----------------|----------------|--0--0--0--0----|
B|--3--3--3--3----|----------------|----------------|--2--2--2--2----|
G|--2--2--2--2----|----------------|--3--3--3--3----|--2--2--2--2----|
D|--0--0--0--0----|--3--3--3--3----|--3--3--3--3----|--2--2--2--2----|
A|----------------|--3--3--3--3----|--1--1--1--1----|--0--0--0--0----|
E|----------------|--1--1--1--1----|----------------|----------------|

e|--3--3--3--3----|--3--3--3--3----|----------------|----------------|
B|--3--3--3--3----|--3--3--3--3----|--5--5--5--5----|--5--5--5--5----|
G|--4--4--4--4----|--4--4--4--4----|--6--6--6--6----|--6--6--6--6----|
D|--5--5--5--5----|--5--5--5--5----|--7--7--7--7----|--7--7--7--7----|
A|--5--5--5--5----|--5--5--5--5----|--7--7--7--7----|--7--7--7--7----|
E|--3--3--3--3----|--3--3--3--3----|--5--5--5--5----|--5--5--5--5----|

e|----------------|----------------|----------------|--0--0--0--0----|
B|--3--3--3--3----|----------------|----------------|--2--2--2--2----|
G|--2--2--2--2----|----------------|--3--3--3--3----|--2--2--2--2----|
D|--0--0--0--0----|--3--3--3--3----|--3--3--3--3----|--2--2--2--2----|
A|----------------|--3--3--3--3----|--1--1--1--1----|--0--0--0--0----|
E|----------------|--1--1--1--1----|----------------|----------------|

e|--3--3--3--3----|--3--3--3--3----|----------------|----------------|
B|--3--3--3--3----|--3--3--3--3----|--5--5--5--5----|--5--5--5--5----|
G|--4--4--4--4----|--4--4--4--4----|--6--6--6--6----|--6--6--6--6----|
D|--5--5--5--5----|--5--5--5--5----|--7--7--7--7----|--7--7--7--7----|
A|--5--5--5--5----|--5--5--5--5----|--7--7--7--7----|--7--7--7--7----|
E|--3--3--3--3----|--3--3--3--3----|--5--5--5--5----|--5--5--5--5----|

[Outro]

[GUITAR 1 and 2]

e|----------------------------|----------------------------|
B|--5--5--5--5--5--5--5--5----|--5--5--5--5--5--5--5--5----|
G|--6--6--6--6--6--6--6--6----|--6--6--6--6--6--6--6--6----|
D|--7--7--7--7--7--7--7--7----|--7--7--7--7--7--7--7--7----|
A|--7--7--7--7--7--7--7--7----|--7--7--7--7--7--7--7--7----|
E|--5--5--5--5--5--5--5--5----|--5--5--5--5--5--5--5--5----|

e|--5L---|--5----||
B|--6L---|--6----||
G|--7L---|--7----||
D|--7L---|--7----||
A|--5L---|--5----||
E|-------|-------||

Legend
L - tied note
h - hammer on/pull off
s - slide

            
            
Suggest correction
Creating personal tab
Creating personal tab
You can edit any tab online and save it as your Personal.

You can edit, replace or remove any tab part or add personal notes – all changes will be seen only by you.

Personal tabs can be accessed anytime from any device, even offline.
Learn more »
Give kudos to tab author, rate the tab!
1 2 3 4 5
comments
print report bad tab
guest
You may want to rate the tab now too:
select rating
Wanna post a correction for this tab? Suggest correction