Oops, an error
Loading. Please wait.

Work Or War Tab

861 views 3 this week
no commentswrite comment
1 2 3 4 5
excellent!
x 1
add to favorites
launch autoscroll
font size
0
reset
how to read this tab
guitar tuner
Tab Pro tools
  • play this tab
  • loop segment
  • change instrument
  • show fretboard
  • metronome
Autoscroll
slow
fast
+/-
esc
set tempo
stop
song: work or war
by: a global threat

intro
E---------------------------------------------------------------------------|
B---------------------------------------------------------------------------|
G---------------------------------------------------------------------------|
D--66-6-88-8-99-9-88-8------------------66-6-88-8-99-9-88-8------9-------9--|
A--44-4-66-6-77-7-66-6--777-2---777-2---44-4-66-6-77-7-66-6--777-7--777--7--|
E-----------------------555-0---555-0------------------------555----555-----|

solo
E---------------------------------------------|
B---9-9---11-11---12-12---11-11----10--12-12--|
G--6-6---8--8----9--9----8--8----9----9--9----|
D---------------------------------------------|
A---------------------------------------------|
E---------------------------------------------|

verse
E--------------------------------------------|
B--------------------------------------------|
G--------------------------------------------|
D--6666-8888-9999-8888-------9999------9999--|
A--4444-6666-7777-6666--7777-7777-7777-7777--|
E-----------------------5555------5555-------|

verse2
E--------------------|
B--------------------|
G--------------------|
D--------------------|
A--9-99999999999999--|
E--7-77777777777777--|
.....\ palm mute  /

chorus
E-----------------------|
B-----------------------|
G-----------------------|
D-----9999--------------|
A--77-7777-99-11111111--|
E--55------77--9-9-9-9--|

bridge1
E---------------------------------------------------|
B---------------------------------------------------|
G---------------------------------------------------|
D---------------------------------------------------|
A--444-2-444-2-444-2-9-7-6-444-2-444-2-444-2-9-7-6--|
E--222-0-222-0-222-0-7-5-4-222-0-222-0-222-0-7-5-4--|
.....................\pm /...................\pm /

E-----------------------------------------|
B-----------------------------------------|
G-----------------------------------------|
D-----------------------------------------|
A--777-2-777-2-777-2-9-7-6-444-2-444-2-4--|
E--555-0-555-0-555-0-7-5-4-222-0-222-0-2--|
.....................\pm /

bridge2
E------------------------------------|
B------------------------------------|
G------------------------------------|
D--66-6-88-8-99-9-88-8---------------|
A--44-4-66-6-77-7-66-6--777-2-777-2--|
E-----------------------555-0-555-0--|

timing:
intro....1x
solo.....2x
verse1...2x
verse2...1x
verse1...2x
verse2...1x
chorus...4x
bridge1..1x
bridge2..1x
verse1...2x
verse2...1x
verse1...2x
verse2...1x
chorus...4x
bridge1..1x

thats the whole long ass, confusing, 100 chord fucking song. its all pretty basic stuff. 
only hard part is really the solo.
comments
We did not receive enough feedback on this tab! Please rate:
print report bad tab
1 2 3 4 5
I want to post or [tab]
guest
You may want to rate the tab now too:
select rating
Please do not post tabs as comments. Select "correction" instead!