Oops, an error
Loading. Please wait.

Snack Attack tab

version 2
version 2

Whole song

1,550 views 12 this week
no commentswrite comment
1 2 3 4 5
x 3
add to favorites
×
Save as Personal and add changes to this tab that will be seen only by you. Learn more ›
×
You can save this tab as Personal to edit and correct it or add notes. All changes will be seen only by you. Learn more »
launch autoscroll
font size
0
reset
how to read this tab
guitar tuner
edit
Autoscroll
slow
fast
+/-
esc
set tempo
stop
Author
Difficulty
-------------------------------------------------------------------------------
                             SNACK ATTACK - A Great Big Pile Of Leaves
-------------------------------------------------------------------------------
Bridge + Intro + Verse Tabbed by: Danowa
Solo Tabbed by: Paul C
E-mail:

Tuning: E Standard

I pulled the tab from Danowa and tabbed the solo and outro, so here is the whole song in one place.

Intro:
e|---------------------------------------------------------------------------|
B|--12/9--7/9--12/9--7/9--12/9--7--12/9--7/9--12/9--7/9--12/14--12-----------|
G|---------------------------------------------------------------------------|
D|---------------------------------------------------------------------------|
A|---------------------------------------------------------------------------|
E|---------------------------------------------------------------------------|

Chorus:
e|----------------------------------------------|
B|----------------------------------------------|
G|---0h1-0h1----4-------------------------------|
D|---2---2------6-------------------------------|
A|---0---0------0-------------------------------|
E|----------------------------------------------|

Verse:
e|--------------------------------------|
B|--------------------------------------|
G|--2---4---4---------------------------|
D|--2---4---6---------------------------|
A|----------0---------------------------|
E|--2---4-------------------------------|

Around 1:20 this is played
   pm****************************************
e|-----------12---------------12--------------|
B|--------12---12-----------12--12------------|
G|-----13--------13--13------------13----13---|
D|--14-------------14----14-----------14------|
A|--------------------------------------------|
E|--------------------------------------------|


Solo:
e|------------------------------------------------------------|
B|------------------------------------------------------------|
G|-/131313-11-------------------------------------------------|
D|-----------14-13----13~-----11~---11--14--16----------------|
A|----------------14~----14~------14--------------------------|
E|------------------------------------------------------------|

e|------------------------------------------------------------|
B|------------------------------------------------------------|
G|-----/13-11-------------------------------------------------|
D|-----------14-13----13~------11-----------------11----------|
A|----------------14~----14~------14--11~\9/11h14----14--11---|
E|------------------------------------------------------------|

e|------------------------------------------------------------|
B|------------------------------------------------------------|
G|-----/13-11-------------------------------------------------|
D|-----------14-13----13~-----11~---11--14--16----------------|
A|----------------14~----14~------14--------------------------|
E|------------------------------------------------------------|

e|------------------------------------------------------------|
B|--------------------12--------------------------------------|
G|-----/13-11------------11/13-----------11-------------------|
D|-----------14-13-----------------11h14----14-11-------------|
A|----------------14------------14----------------------------|
E|------------------------------------------------------------|

e|------------------------------------------------------------|
B|------------------------------------------------------------|
G|---/131313-11-----------------------------------------------|
D|-------------14-13----13~-----11~---11--14--16--------------|
A|------------------14~----14~------14------------------------|
E|------------------------------------------------------------|

e|------------------------------------------------------------|
B|------------------------------------------------------------|
G|-----/13-11-------------------------------------------------|
D|-----------14-13----13~-----11~-----------------------------|
A|----------------14~----14~------14--11~---------------------|
E|------------------------------------------------------------|

Pre-chorus:
     pm***********
e|----------------------------------------------|
B|----------------------------------------------|
G|---0h1-0h1----4-------------------------------|
D|---2---2------6-------------------------------|
A|---0---0------0-------------------------------|
E|----------------------------------------------|

Chorus:
e|----------------------------------------------|
B|----------------------------------------------|
G|---0h1-0h1----4-------------------------------|
D|---2---2------6-------------------------------|
A|---0---0------0-------------------------------|
E|----------------------------------------------|

Outro:
e|----------------------------------------------------------------|
B|----------------------------------------------------------------|
G|--------9-9-----------9-9-----------9-9-------11-9----11-9------|
D|---9-9------\6-6-/9-9-----\6-6-/9-9-----\6-6--------9------9----|
A|----------------------------------------------------------------|
E|----------------------------------------------------------------|

e|-----------------------------------------------------------------------------|
B|-----------------------------------------------------------------------------|
G|--------9-9-----------9-9-----------9-9-------11-9------11-9--------6----9/--|
D|---9-9------\6-6-/9-9-----\6-6-/9-9-----\6-6-------11--------11---9----9-----|
A|-----------------------------------------------------------------------------|
E|-----------------------------------------------------------------------------|



************************************

| pm  palm-mute
| /   slide up
| \   slide down
| h   hammer-on
| p   pull-off
| ~   vibrato
| +   harmonic
| x   Mute note
| b   Bend
| pb  Pre-bend
| br  Bend release
| pbr Pre-bend release
| brb Bend release bend

************************************
Suggest correction
Creating personal tab
Creating personal tab
You can edit any tab online and save it as your Personal.

You can edit, replace or remove any tab part or add personal notes – all changes will be seen only by you.

Personal tabs can be accessed anytime from any device, even offline.
Learn more »
Give kudos to tab author, rate the tab!
1 2 3 4 5
comments
print report bad tab
guest
You may want to rate the tab now too:
select rating
Wanna post a correction for this tab? Suggest correction